Oops, an error
Loading. Please wait.

Last Of My Kind Tab

version 2
version 2

Whole song

4,913 views 1 this week
1 commentread comment
1 2 3 4 5
x 3
add to favorites
launch autoscroll
font size
0
reset
how to read this tab
guitar tuner
Autoscroll
slow
fast
+/-
esc
set tempo
stop
Help us to improve Ultimate-Guitar.com Take our survey!
×
Author
Difficulty
Tuning
novice
C F A# D# G C
This is the third song off of thier new album 'Black Gives Way to Blue' its a half
step down with a drop D (Db).


intro
Eb-------------------------------------------------------------------|
Bb-------------------------------------------------------------------|
Gb-------------------------------------------------------------------|
Db-------------------------------------------------------------------|
Ab-----4---4s5---5s7---7---5---4--------4---4s5---5s7---7---5---4----|
Db-2s4---4-----5-----7---5---5---4--2s4---4-----5-----7---5---4---4--|

Eb-------------------------------------------------------------------|
Bb-------------------------------------------------------------------|
Gb-------------------------------------------------------------------|
Db-------------------------------------------------------------------|
Ab-----4---4s5---5s7---7---5---4--------4---4s5---5s7---7---8---4----|
Db-2s4---4-----5-----7---5---5---4--2s4---4-----5-----7---8---4------|

verse(2x)
Eb-------------------------------------------------------------------|
Bb-------------------------------------------------------------------|
Gb-------------------------------------------------------------------|
Db-------------------------------------------------------------------|
Ab-----4---4s5---5s7---7---5---4--------4---4s5---5s7---7---5---4----|
Db-2s4---4-----5-----7---5---5---4--2s4---4-----5-----7---5---4---4--|

Eb-------------------------------------------------------------------|
Bb-------------------------------------------------------------------|
Gb-------------------------------------------------------------------|
Db-------------------------------------------------------------------|
Ab-----4---4s5---5s7---7---5---4--------4---4s5---5s7---7---8---4----|
Db-2s4---4-----5-----7---5---5---4--2s4---4-----5-----7---8---4------|

pre-chorus(4x)
Eb-----------------------------|
Bb-----------------------------|
Gb-----------------------------|
Db-5-7----7----7----7---7-8-5--|
Ab-5-7----7----7----7---7-8-5--|
Db-5h7-77-7-77-7-77-7-7-7-8-5--|
       ..   ..   ..   .
       pm   pm   pm   pm
 
Chorus(2x)
Eb----------------------------------------------------------|
Bb----------------------------------------------------------|
Gb----------------------------------------------------------|
Db-3-2-2-2-2-2-2-3-2-2-2-2-2-2-3-2-2-2-2-2-2-3-2-2-8-7-6-5--|
Ab-1-2-2-2-2-2-2-1-2-2-2-2-2-2-1-2-2-2-2-2-2-1-2-2-8-7-6-5--|
Db---2-2-2-2-2-2---2-2-2-2-2-2---2-2-2-2-2-2---2-2s8-7-6-5--|
     . . . . . .   . . . . . .   . . . . . .   . .
         pm            pm            pm        pm  

intro
Eb-------------------------------------------------------------------|
Bb-------------------------------------------------------------------|
Gb-------------------------------------------------------------------|
Db-------------------------------------------------------------------|
Ab-----4---4s5---5s7---7---5---4--------4---4s5---5s7---7---5---4----|
Db-2s4---4-----5-----7---5---5---4--2s4---4-----5-----7---5---4---4--|

Eb-------------------------------------------------------------------|
Bb-------------------------------------------------------------------|
Gb-------------------------------------------------------------------|
Db-------------------------------------------------------------------|
Ab-----4---4s5---5s7---7---5---4--------4---4s5---5s7---7---8---4----|
Db-2s4---4-----5-----7---5---5---4--2s4---4-----5-----7---8---4------|

verse(2x)
Eb-------------------------------------------------------------------|
Bb-------------------------------------------------------------------|
Gb-------------------------------------------------------------------|
Db-------------------------------------------------------------------|
Ab-----4---4s5---5s7---7---5---4--------4---4s5---5s7---7---5---4----|
Db-2s4---4-----5-----7---5---5---4--2s4---4-----5-----7---5---4---4--|

Eb-------------------------------------------------------------------|
Bb-------------------------------------------------------------------|
Gb-------------------------------------------------------------------|
Db-------------------------------------------------------------------|
Ab-----4---4s5---5s7---7---5---4--------4---4s5---5s7---7---8---4----|
Db-2s4---4-----5-----7---5---5---4--2s4---4-----5-----7---8---4------|

pre-chorus(4x)
Eb-----------------------------|
Bb-----------------------------|
Gb-----------------------------|
Db-5-7----7----7----7---7-8-5--|
Ab-5-7----7----7----7---7-8-5--|
Db-5h7-77-7-77-7-77-7-7-7-8-5--|
       ..   ..   ..   .
       pm   pm   pm   pm

Chorus(4x)
Eb----------------------------------------------------------|
Bb----------------------------------------------------------|
Gb----------------------------------------------------------|
Db-3-2-2-2-2-2-2-3-2-2-2-2-2-2-3-2-2-2-2-2-2-3-2-2-8-7-6-5--|
Ab-1-2-2-2-2-2-2-1-2-2-2-2-2-2-1-2-2-2-2-2-2-1-2-2-8-7-6-5--|
Db---2-2-2-2-2-2---2-2-2-2-2-2---2-2-2-2-2-2---2-2s8-7-6-5--|
     . . . . . .   . . . . . .   . . . . . .   . .
         pm            pm            pm        pm  



bridge(4x[the solo is played behind thins riff which comes in half way through])
Eb-----------------------------------------------------------------|
Gb-----------------------------------------------------------------|
Bb-----------------------------------------------------------------|
Db-2-0-2-3-2---0----5-3-2-0-2-3-2--2-0-2-3-2---0----7-3-2-0-2-3-2--|
Ab-2-0-2-3-2---0----5-3-2-0-2-3-2--2-0-2-3-2---0----7-3-2-0-2-3-2--|
Db-2-0-2h3-2---0(2)s5-3-2-0-2h3-2--2-0-2h3-2---0(2)s7-3-2-0-2h3-2--|


intro
Eb-------------------------------------------------------------------|
Bb-------------------------------------------------------------------|
Gb-------------------------------------------------------------------|
Db-------------------------------------------------------------------|
Ab-----4---4s5---5s7---7---5---4--------4---4s5---5s7---7---5---4----|
Db-2s4---4-----5-----7---5---5---4--2s4---4-----5-----7---5---4---4--|

Eb-------------------------------------------------------------------|
Bb-------------------------------------------------------------------|
Gb-------------------------------------------------------------------|
Db-------------------------------------------------------------------|
Ab-----4---4s5---5s7---7---5---4--------4---4s5---5s7---7---8---4----|
Db-2s4---4-----5-----7---5---5---4--2s4---4-----5-----7---8---4------|


Chorus(2x)
Eb----------------------------------------------------------|
Bb----------------------------------------------------------|
Gb----------------------------------------------------------|
Db-3-2-2-2-2-2-2-3-2-2-2-2-2-2-3-2-2-2-2-2-2-3-2-2-8-7-6-5--|
Ab-1-2-2-2-2-2-2-1-2-2-2-2-2-2-1-2-2-2-2-2-2-1-2-2-8-7-6-5--|
Db---2-2-2-2-2-2---2-2-2-2-2-2---2-2-2-2-2-2---2-2s8-7-6-5--|
     . . . . . .   . . . . . .   . . . . . .   . .
         pm            pm            pm        pm  


outro(Palm muted)
Db-----------------------------------|
Bb-----------------------------------|
Gb-----------------------------------|
Db--2-2-2-2-2-2-2-2-2-2-2-2-2-2-2-2--|
Ab--2-2-2-2-2-2-2-2-2-2-2-2-2-2-2-2--|
Db--2-2-2-2-2-2-2-2-2-2-2-2-2-2-2-2--|

there is also a lead that is played during the outro, but i havnt figured it out yet.
Suggest correction
Give kudos to tab author, rate the tab!
1 2 3 4 5
comments
print report bad tab
1 comment total.
0 reply
cooljew 153 Sep 29, 2009 12:41 AM

this heres a bit of ollroyyytte. solo?

guest
You may want to rate the tab now too:
select rating
Wanna post a correction for this tab? Suggest correction