Oops, an error
Loading. Please wait.

Lesson Learned Bass Tab

version 1
version 1

Whole song

Interactive

1,641 views 6 this week
1 commentread comment
1 2 3 4 5
not so good
x 3
add to favorites
launch autoscroll
font size
0
reset
guitar tuner
Tab Pro tools
  • play this tab
  • loop segment
  • change instrument
  • show fretboard
  • metronome
Autoscroll
slow
fast
+/-
esc
set tempo
stop
Contributor
tuning Db Ab Db Gb

Intro/verse  x8
|-------------------------------------| 
|-------------------------------------| 
|------0-0-1--1-----------------------|
|-5-5-----------2-2---2---2-2---2-2---|

x4
|------------------------------| 
|------------------------------| 
|------0-0-1--1----------------|
|-5-5-----------2-2--2-2--0--2-|

Pre-chorus x3
|-------------------------------| 
|-------------------------------| 
|----------------5--0-0-----0-0-|
|-2--5---5-5---5----------------|

x2
|------------------------------| 
|------------------------------| 
|------0-0-1--1----------------|
|-5-5-----------2-2--2-2--0--2-|

Verse x6
|-------------------------------------| 
|-------------------------------------| 
|------0-0-1--1-----------------------|
|-5-5-----------2-2---2---2-2---2-2---|

x4
|------------------------------| 
|------------------------------| 
|------0-0-1--1----------------|
|-5-5-----------2-2--2-2--0--2-|

Pre-chorus x3
|-------------------------------| 
|-------------------------------| 
|----------------5--0-0-----0-0-|
|-2--5---5-5---5----------------|

Chorus 
|------------------------------------------------------------------------| 
|------------------------------------------------------------------------| 
|-7-7-7-7-7-7-7--7--2-2-2-2-2-2-2--2--3-3-3-3-3-3-3--3--0-0-0-0-0-0-0--0-| 
|------------------------------------------------------------------------| 

|-------------------------------------------------------------------------| 
|-----------------------------------------------------------------7-7-7---| 
|-7-7-7-7-7-7-7--7--2-2-2-2-2-2-2--2--3-3-3-3-3-3-3--3--0-0-0-0-7-------7-| 
|-------------------------------------------------------------------------| 

x2
|------------------------------------------------------------------------| 
|------------------------------------------------------------------------| 
|-7-7-7-7-7-7-7--7--2-2-2-2-2-2-2--2--3-3-3-3-3-3-3--3--0-0-0-0-0-0-0--0-| 
|------------------------------------------------------------------------| 

x4
|------------------------------| 
|------------------------------| 
|------0-0-1--1----------------|
|-5-5-----------2-2--2-2--0--2-|

Pre-chorus x3
|-------------------------------| 
|-------------------------------| 
|----------------5--0-0-----0-0-|
|-2--5---5-5---5----------------|

Chorus 
|------------------------------------------------------------------------| 
|------------------------------------------------------------------------| 
|-7-7-7-7-7-7-7--7--2-2-2-2-2-2-2--2--3-3-3-3-3-3-3--3--0-0-0-0-0-0-0--0-| 
|------------------------------------------------------------------------| 

|-------------------------------------------------------------------------| 
|-----------------------------------------------------------------7-7-7---| 
|-7-7-7-7-7-7-7--7--2-2-2-2-2-2-2--2--3-3-3-3-3-3-3--3--0-0-0-0-7-------7-| 
|-------------------------------------------------------------------------|

x2
|------------------------------------------------------------------------| 
|------------------------------------------------------------------------| 
|-7-7-7-7-7-7-7--7--2-2-2-2-2-2-2--2--3-3-3-3-3-3-3--3--0-0-0-0-0-0-0--0-| 
|------------------------------------------------------------------------| 

x4
|------------------------------| 
|------------------------------| 
|------0-0-1--1----------------|
|-5-5-----------2-2--2-2--0--2-|

x1
|-----------------|
|-----------------|
|------0-0-1--1---|
|-5-5-----------2-|

comments
We did not receive enough feedback on this tab! Please rate:
print report bad tab
1 2 3 4 5
1 comment total.
0 reply
OKBoomer wrote on November 25 2011, 06:15 pm

What song were you listening to?

I want to post or [tab]
guest
You may want to rate the tab now too:
select rating
Please do not post tabs as comments. Select "correction" instead!