Oops, an error
Loading. Please wait.

Lesson Learned Tab

version 1
version 1

Whole song

Interactive

19,840 views 13 this week
1 commentread comment
1 2 3 4 5
excellent!
x 8
add to favorites
launch autoscroll
font size
0
reset
how to read this tab
guitar tuner
Tab Pro tools
  • play this tab
  • loop segment
  • change instrument
  • show fretboard
  • metronome
×
Best way to learn
"Lesson Learned"
Autoscroll
slow
fast
+/-
esc
set tempo
stop
Contributor
Difficulty
Tuning
intermediate
D# G# C# F# A# D#
Artist: Alice in Chains
Title: Lesson Learned
Album: Black Gives Way to Blue

Tuning: (low to high) Eb Ab Db Gb Bb Eb

Tabbed by: FireReaverX


Intro
Eb|-----------------------------------------|
Bb|-----------------------------------------|
Gb|-7-7-9-9-b10=10=r9-9---9-9-9-b10===r9-9--|
Db|-----------------------------------------|
Ab|-----------------------------------------|
Eb|-----------------------------------------|
                                            |  4x
Eb|-----------------------------------------|
Bb|-----------------------------------------|
Gb|-----2-2-3---3---------------------------|
Db|-5-5-2-2-3---3-----2---2---2-2-----2--2--|
Ab|-5-5-0-0-1---1-----2---2---2-2-----2--2--|
Eb|-3-3------------0--0---0---0-0-----0--0--|


Verse
Eb|---------------------------------|
Bb|---------------------------------|
Gb|-----2-2-3-3---------------------|
Db|-5-5-2-2-3-3---2---2---2-2---2-2-|  4x
Ab|-5-5-0-0-1-1---2---2---2-2---2-2-|
Eb|-3-3---------0-0---0---0-0---0-0-|

Eb|-----------------------------------------|
Bb|-----------------------------------------|
Gb|-7-7-9-9-b10=10=r9-9---9-9-9-b10===r9-9--|
Db|-----------------------------------------|
Ab|-----------------------------------------|
Eb|-----------------------------------------|
                                            |  4x
Eb|-----------------------------------------|
Bb|-----------------------------------------|
Gb|-----2-2-3---3---------------------------|
Db|-5-5-2-2-3---3-----2---2---2-2-----2--2--|
Ab|-5-5-0-0-1---1-----2---2---2-2-----2--2--|
Eb|-3-3------------0--0---0---0-0-----0--0--|


Pre-Chorus
Eb|-----------------------------------------------|
Bb|-----------------------------------------------|
Gb|-7-7-9-9-b10=10=r9-7---7-b9-r7-7---6-----------|
Db|-----------------------------------------------|
Ab|-----------------------------------------------|
Eb|-----------------------------------------------|
                                                  |
Eb|-----------------------------------------------|
Bb|-----------------------------------------------|
Gb|-----2-2-3---3-----------------7---2-2-----2-2-|
Db|-5-5-2-2-3---3-----5---5-5---5-7---2-2-----2-2-|
Ab|-5-5-0-0-1---1-----5---5-5---5-5---0-0-----0-0-|
Eb|-3-3------------0--3---3-3---3-----------------|

Eb|--------------------------------------|
Bb|--------------------------------------|
Gb|-9-b10=r9-7---7-b9-r7-7---6-----------|
Db|--------------------------------------|
Ab|--------------------------------------|
Eb|--------------------------------------|
                                         |  2x
Eb|--------------------------------------|
Bb|--------------------------------------|
Gb|-3-3------------------7---2-2-----2-2-|
Db|-3-3------5---5-5---5-7---2-2-----2-2-|
Ab|-1-1------5---5-5---5-5---0-0-----0-0-|
Eb|-------0--3---3-3---3-----------------|


Intro riff 2x
Verse
Pre-Chorus


Chorus
Eb|-----------------------------------------------------------------------------------|
Bb|--------------------12---12-12-12---12-12-13-13---13---13-12-----------------------|
Gb|-9-9---9-9-9-b10-r9--------------------------------------------14---12---11---12---|
Db|-----------------------------------------------------------------------------------|
Ab|-----------------------------------------------------------------------------------|
Eb|-----------------------------------------------------------------------------------|
                                                                                      |  4x
Eb|-----------------------------------------------------------------------------------|
Bb|-----------------------------------------------------------------------------------|
Gb|-9-9-9-9-9-9-9---9---4-4--4--4--4-4--4--4--5--5-5--5-5--5--5-5--2-2--2-2--2-2--2-2-|
Db|-9-9-9-9-9-9-9---9---4-4--4--4--4-4--4--4--5--5-5--5-5--5--5-5--2-2--2-2--2-2--2-2-|
Ab|-7-7-7-7-7-7-7---7---2-2--2--2--2-2--2--2--3--3-3--3-3--3--3-3--0-0--0-0--0-0--0-0-|
Eb|-----------------------------------------------------------------------------------|


Guitar Solo (w/ Rhythm Guitar Verse)
Eb|-----------------------------------------------------------------------------|
Bb|--------------5--------------------------------------------------------------|
Gb|-4-b5===================r4---------------------------------------------------|
Db|-----------------------------------------------------------------------------|
Ab|------------------------------------/10---9-7-5-4-2-2*-b3=r2~----------------|
Eb|-----------------------------------------------------------------------------|
PM                                             . . . . 

Eb|-----------------------------------------------------------------------------|
Bb|-/17---17---17---17-17---17-17---15-17-17-b18=====18===18=r17p15-12-h15p12~--|
Gb|-----------------------------------------------------------------------------|
Db|-----------------------------------------------------------------------------|
Ab|-----------------------------------------------------------------------------|
Eb|-----------------------------------------------------------------------------|

(w/ Rhythm Guitar Pre-Chorus)
Eb|-----------------------------------------------------------------------------|
Bb|-----------------------------------------------------------------------------|
Gb|-----------------------------------------------------------------------------|
Db|-/9---7-5-4-5-4---------------------/9---7h9p7-5-4-5-4-----------------------|
Ab|----------------7-4-b5=r4------------------------------7-4-b5=r4-2-0---------|
Eb|-----------------------------------------------------------------------------|

Eb|-----------------------------------------------------------------------------|
Bb|-0-0---------------0---------------------------------------------------------|
Gb|-4-4-/7-4-/9---4---4-/7-4-/9---4---/11/12\11~--------------------------------|
Db|-----------------------------------------------------------------------------|
Ab|-----------------------------------------------------------------------------|
Eb|-----------------------------------------------------------------------------|


Chorus
Outro (Intro)


| /  slide up
| \  slide down
| h  hammer-on
| p  pull-off
| b  bend
| =  hold bend
| ~  vibrato
| *  pinch harmonic
=================================================================================
comments
print report bad tab
1 comment total.
0 reply
Single Foo wrote on January 20 2011, 05:23 pm

nice tab man i cant see any mistakes :D

I want to post or [tab]
guest
You may want to rate the tab now too:
select rating
Please do not post tabs as comments. Select "correction" instead!