Oops, an error
Loading. Please wait.

Love Hate Love Bass Tab

version 1
version 1

Whole song

Interactive

6,339 views 12 this week
1 commentread comment
1 2 3 4 5
accurate
x 1
add to favorites
launch autoscroll
font size
0
reset
guitar tuner
Tab Pro tools
  • play this tab
  • loop segment
  • change instrument
  • show fretboard
  • metronome
Autoscroll
slow
fast
+/-
esc
set tempo
stop
Contributor
h=hammer on
p=pull off
x=dead note
.=staccato
Mike does some variations during the song.
This are the main riffs.

riff1
G|------------|---------------------------|
D|*---------*-|---------------------------|
A|*-5-------*-|---------------------------|
D|-------2----|---------------------------|

riff2
G|----------------------------------------|
D|----------------------------------------|
A|-5--5-5-3-5-3-5-------------------------|
D|----------------2--2-2-0-2--------------|

G|----------------------------------------|
D|----------------------------------------|
A|-5--5-5-3-5-3-5-------------------------|
D|----------------2--2-2-0-2-5h7/10-12----|

G|--------------------5---------------------|
D|----------------5h7---7-------------------|
A|-5--5-5-5-3-5-3---------------------------|
D|------------------------2--22-0-2-0-2-----|

G|----------------------------------------|
D|----------------------------------------|
A|-5--5-5-3-5-3-5-------------------------|
D|----------------2--2-2-0-2--------------|

riff3
G|-------------5-7--------------------------5-7---------------|
D|----------5h7-------------------------5h7-------------------|
A|-5-57-78-8---------------0-3-5-57-78-8----------------------|
D|-----------------2222-22----------------------2.2.2.2.-2.2--|

riff4
G|----------------------------------------|---------|------|
D|----------------------------------------|*-------*|------|
A|----------------------------------------|*-------*|------|
D|-5-7-x-x-5-7-4-444-4-4-5-x-x-4-5-3-33-3-|--22-02--|------|

riff1 x4
riff2 x1
riff3 x2
riff1 x2
riff2 x1
riff3 x4
riff1 x2
riff4 x4
pause
riff4 x1
comments
We did not receive enough feedback on this tab! Please rate:
print report bad tab
1 2 3 4 5
1 comment total.
0 reply
CobainReborn wrote on March 11 2011, 01:22 pm

Good job tabbing. Only thing, it's dropped and a half step down so it's D# A# D# G#.

I want to post or [tab]
guest
You may want to rate the tab now too:
select rating
Please do not post tabs as comments. Select "correction" instead!