Oops, an error
Loading. Please wait.
We have an official Man In The Box tab made by UG professional guitarists. Check out the tab »
×
4,226 views 1 this week
2 commentsread comments
1 2 3 4 5
x 7
add to favorites
×
Save as Personal and add changes to this tab that will be seen only by you. Learn more ›
×
You can save this tab as Personal to edit and correct it or add notes. All changes will be seen only by you. Learn more »
launch autoscroll
font size
0
reset
guitar tuner
backing track
0:00
0:00
edit
Autoscroll
slow
fast
+/-
esc
set tempo
stop
Author
I remember trying to learn this song a couple years ago and having a tough time finding
a tab I liked.  This is jam version of the song, I have played it this way in a couple
different bands now and no one complains about the bass.  So here it is.

Half step: Eb Ab Db Gb
Intro:  theres a palm mute and let ring pattern on the Eb you have to listen to and
workout.  It repeats a bunch of times then on the last one play the bridge

-------------------------------------------------------------------------------------|
-------------------------------------------------------------------------------------|
------------------------- --7--5-------------------------------7---5-----------------|
0-0-0--00--0-0-00-0-0-00-0-57---00-0-0--00--0-0-00-0-0-00 0---57---------------------|

Bridge
----------------------------------------------------------------------------------|
----------------------------------------------------------------------------------|
---------------------------------------------001122-221100-----001122-221100------|
0-0-0--00--0-0-00-0-0-00-0-0000-00012th/-33--------------33-33--------------33----|


------------------------------------|
------------------------------------|
------------------------7-5---------|
0-0-0--00--0-0-00-0-0-0---765--3-0--|  Then straight to the Chorus

Chorus: Repeats 3 x

--------------------------------------------|
--------------------------------------------|
----------------------5-55-55530-00-00------|
0-0-000-0-3-33-333-30----------------43-----|

On the 4th one I like to let the notes ring a little longer

--------------------------------------------|
--------------------------------------------|
---------------------5-55-55530-00-00-------|
0-0-000-03-33-333-30-----------------43-----|  Then back to the intro

----------------------------------------------------------------------|
----------------------------------------------------------------------|
--------------------------- 7--5-------------------------------7---5--|
0-0-0--00--0-0-00-0-0-00-0-57---00-0-0--00--0-0-00-0-0-00 0---57------|

This tab is my first tab and some of the timing is written poorly.  You will have to
workout the rhythm yourself by playing along to the track.  I have never seen it tabbed
like this and if it helps one person, that would be awesome!  So do not be too hypercritical.

If anyone wants further elaboration, I can post a you tube vid and you can see and hear 
the timing.

            
            
Suggest correction
Creating personal tab
Creating personal tab
You can edit any tab online and save it as your Personal.

You can edit, replace or remove any tab part or add personal notes – all changes will be seen only by you.

Personal tabs can be accessed anytime from any device, even offline.
Learn more »
comments
print report bad tab
2 comments total.
0 reply
danger pay 50 Sep 24, 2013 07:16 AM, edited on December 9 2013, 04:44 pm

When I wrote the tab, it ended up slightly different in the final draft. The intro riff ending should look like this.-------------7--5---------------57--If you look closely, the Ab string should be over to left about 3or 4 spaces. The Bridge should look just a little tighter like this:----001122-221100----001122-221100--33-------------33-33------------33The end of the bridge is:--7-5------------765--3-0That is it. Otherwise again, remember some of timing isn't correct and you have to play along with the song to work out.

guest
You may want to rate the tab now too:
select rating
Wanna post a correction for this tab? Suggest correction