Oops, an error
Loading. Please wait.

Nutshell Bass Tab

version 1
version 1

Acoustic

Whole song

Interactive

8,388 views 9 this week
4 commentsread comments
1 2 3 4 5
x 4
add to favorites
launch autoscroll
font size
0
reset
guitar tuner
Autoscroll
slow
fast
+/-
esc
set tempo
stop
Help us to improve Ultimate-Guitar.com Take our survey!
×
Difficulty
novice
-------------------------------------------------------------------------------
			     Nutshell Unplugged - Alice In Chains
-------------------------------------------------------------------------------

Tabbed By : amped7
e-mail: amped7_2010@yahoo.com

Tuning:

Before Layne sings:
G|-------------------------4-3-------------------------------------------------|
D|-----------------------------4-----------------------------------------------|
A|--2222-4-6----6-4-4-2----------2-4-6----6-4-4-2----2222-4-6----6-4-4-2-------|
E|-----------------------------------------------------------------------------|

Layne starts singing.

G|-----------------------------------------------------------------------------|
D|------------------------------9-8--------------------------------------------|
A|--2222-4-6----6-4-4-2----2/9------9-----6----6-4-4-2----2222-4-6----6-4-4-2--|
E|------------------------------------7-9--------------------------------------|


G|--4-3----------------------------------------------4-3-----------------------|
D|------4------------------------------------------------4---------------------|
A|--------2-4-6----6-4-4-2----2222-4-6----6-4-4-2----------2-4-6----6-4-4-2----|
E|-----------------------------------------------------------------------------|


G|-----------------------------------------------------4-3---------------------|
D|------9-8------------------------------------------------4-------------------|
A|--2/9-----9--------6-4-4-2----2222-4-6----6-4-4-2----------2-4-6----6-4-4-2--|
E|------------7-9--------------------------------------------------------------|


...it repeats itself.


| /  slide up
| \  slide down
| h  hammer-on
| p  pull-off
| ~  vibrato
| +  harmonic
| x  Mute note
===============================================================================
Suggest correction
comments
print report bad tab
4 comments total. Showing first comments.
+1 reply
winged136 10 Jul 29, 2009 12:16 PM

all chains are in flat tuning, tune down and play it right this tab is WRONG

-1 reply
amped7 10 Jul 31, 2009 05:22 PM

I know all Alice In Chains are in flat tuning. Half step down. This tab is in standard tuning. It sounds right if played in standard tuning.

+1 reply
markie_mark_95 52 Nov 28, 2011 02:02 AM

Youve got the wrong octave for the intro (and every time its repeated) if you had tuned half a step down that wouldnt be a problem :p

guest
You may want to rate the tab now too:
select rating
Wanna post a correction for this tab? Suggest correction