Oops, an error
Loading. Please wait.

Nutshell Acoustic Tab

21,247 views 12 this week
no commentswrite comment
1 2 3 4 5
please rate
add to favorites
launch autoscroll
font size
0
reset
how to read this tab
guitar tuner
Autoscroll
slow
fast
+/-
esc
set tempo
stop
Help us to improve Ultimate-Guitar.com Take our survey!
×
Author
Okay, here is the first version of the solo, which I prefer.
I found two on the net, but none on UG, so I´m gonna post them.

The first one is by Coney420@aol.com

------------------------

Solo
e-------------------------------12+------------------------------
b---------------------9s11-12---12+------------------------------
g---------------------9s11-12------------------------------------
d-9b10r9--------------9s11-12------------------------------------
a--------10-9b10r9-----------------------------------------------
e------------------10-----------------0-0-10h12-0-15-0-12~-------

e-------------------------------12+------------------------------
b---------------------9s11-12---12+------------------------------
g---------------------9s11-12---12+------------------------------
d-9b10r9--------------9s11-12------------------------------------
a--------10-9b10r9-----------------------------------------------
e------------------10---------------------10h12-0-15-0-12~-------

e----------------------------10----------------------------------
b------------------8---10b12:::::12r10-10s8-7h8p7----------------
g-----------7-9~-9---9----------------------------9-7-9-7~--7-9-7
d-----5-7s9------------------------------------------------------
a-5h7------------------------------------------------------------
e----------------------------------------------------------------

e----------------------------------------------------------------
b--------------------------------------------7h8-10p8-7~--7h8p7--
g--------------------------------------7-9-9--------------------9
d-7h8h9-8p7-5~--7p5-7p5----------5-7s9---------------------------
a-----------------------7~---5h7---------------------------------
e----------------------------------------------------------------

e----------------------------------------------------------------
b-7--------------------------------------------------------------
g---9-7-7h9-7-7~-------------------------------------------------
d------------------9-9-9-7-9-7-5-7-5-7b9-------------------------
a----------------------------------------------------------------
e----------------------------------------------------------------


--------------------------------

The second one was tabbed by Steve M. at maxmar@wire.net.au

--------------------------------

                                          Main solo
e    --0-0-0-0--0-0--------------------|--------------------|
B    --3-3-0-0--0-0--------------------|--------------------|
G    --0-0-0-0--0-0--------------------|--------------7-9v--|
D    --2-2-2-2--2-2------------5-------|-------5-5s7--------|
A    --3-3-3-3--3-3------3-2-----x-7v--|--5h7---------------|
E    ----------------0-0-----3---------|--------------------|

e    --------------10-------|----------------------------------|
B    --8---8--11b------11r--|--8-10-8--7-8-7-------------------|
G    ----9-----|------------|-----------------9-7-9-7v--7-9-7--|
D    ---------hold----------|----------------------------------|
A    ---------bend----------|----------------------------------|
E    -----------------------|----------------------------------|

e    ------------------------------|-------------------------|
B    ------------------------------|-------------------------|
G    ------------------------------|--------------7-9-9v--9--|
D    --7-8-9--8-7-5v--7-5-7-5------|-------5-5s7-------------|
A    --------------------------7v--|--5h7--------------------|
E    ------------------------------|-------------------------|

e    ---------------------------------------|------------------------|
B    --7-8-10-7-7v--7-8-7---7---------------|------------------------|
G    ---------------------9---9-7-7h9-7-7v--|------------------------|
D    ---------------------------------------|--9-9-9-7-9-7-5-7-5-7b--|
A    ---------------------------------------|------------------------|
E    ---------------------------------------|------------------------|
Suggest correction new What's this?
You can suggest a correction to this tab. Community and Mods will review your correction and vote to approve or reject it.
comments
We did not receive enough feedback on this tab! Please rate:
print report bad tab
1 2 3 4 5
guest
You may want to rate the tab now too:
select rating
Please do not post tabs as comments. Select "correction" instead!