Oops, an error
Loading. Please wait.

Nutshell Tab

version 1
version 1

Solo

Whole song

Interactive

55,108 views 99 this week
3 commentsread comments
1 2 3 4 5
x 10
add to favorites
launch autoscroll
font size
0
reset
how to read this tab
guitar tuner
Autoscroll
slow
fast
+/-
esc
set tempo
stop
Help us to improve Ultimate-Guitar.com Take our survey!
×
Author
Tuning
D# G# C# F# A# D#
Hi, I haven't seen much tabs for the solo off Nutshell. And this sounds better than any
tab i've seen, so I hope you like it too. Tab credits go to Jake Arola and Tom Holt. As 
helped me do this.

Use with Delay pedal and some distortion.

                                                   2x
D#|--12------------------------|--10---------------|
A#|-----12---------------------|-----8-------------|
F#|--------12--11b--9----------|-------7-----------|
C#|--------------------9--10v--|----------7b--5/4--|
G#|----------------------------|-------------------|
D#|----------------------------|-------------------|

D#|-------------------0-----------------------------------|
A#|-------------5/7---3-----------------------------------|
F#|--4b---------5/7---0-----------------------------------|
C#|-----5-4b----------2-----------------5------------x-x--|
G#|----------5--------3-----------5h7--------7v--\---x-x--|
D#|-------------------x------0-0------0----0---------x-x--|
                             P.M.     .    .

D#|-------------------0-----------------------------|
A#|-------------5/7---3---------12------------------|
F#|--4b---------5/7---0---------12------------------|
C#|-----5-4b----------2---2/10--10------5-----------|
G#|----------5--------3----------------------7v--\--|
D#|-------------------x---------------0----0--------|
                                      .    .

D#|------------------------------------------0----0-0-0-0-0-0------|
A#|-------12------10------8------7--------5--5----5-5-5-5-5-5--5/--|
F#|-------------------------------------5----5----5-5-5-5-5-5------|
C#|--5/10-----/9------/9-----/7------/5----------------------------|
G#|----------------------------------------------------------------|
D#|----------------------------------------------------------------|

   This one is im pretty sure how the album version looks
D#|--------------------------|---------------------------------------------|
A#|------------0h1h3p1p0h1v--|------------12h13h15p13p12--------------8----|
F#|--------0h2---------------|--11h12h14------------------14p12\11----11b--|
C#|--0h2h4-------------------|-------------------------------------14------|
G#|--------------------------|---------------------------------------------|
D#|--------------------------|---------------------------------------------|

                           OR

   This one is how he plays it live im sure of, if you've seen him play it.
D#|----------------------------|-------------------------------------------|
A#|----------------------------|-------------------------------------------|
F#|--------------4h5h7p5p4h5v--|---------S A M E   A S   A B O V E---------|
C#|--------5h7h9---------------|-------------------------------------------|
G#|--5h7h9---------------------|-------------------------------------------|
D#|----------------------------|-------------------------------------------|

*Please ask for the authors permission before reposting*

Leave feedback, thanks.

************************************

| b  Bend
| /  Slide up
| x  Dead note
| h  Hammer-on
| \  Slide down
| .  Palm Mute
| p  Pull-off

************************************
Suggest correction
comments
print report bad tab
3 comments total.
0 reply
Mookystinks 20 Nov 26, 2009 06:48 AM

very nice!!!!

0 reply
Jelly Man 30 Apr 07, 2010 05:41 PM

on the note before last on the album version, instead of 12 it should be 14 and then the 8 and 11 bend....yeh try it, pretty sure im right

0 reply
thomas.s.holt 10 Aug 02, 2016 04:01 PM

wow, hard to believe this is still out there! love it.

guest
You may want to rate the tab now too:
select rating
Wanna post a correction for this tab? Suggest correction