Oops, an error
Loading. Please wait.
We have Chord Pro version of Nutshell.
It's the closest thing you can get to the original song and it has interactive parts. Check out the tab »
×
17,577 views 1 this week
1 commentread comment
1 2 3 4 5
1 last vote to show rating
add to favorites
launch autoscroll
font size
0
reset
guitar tuner
backing track
0:00
0:00
Autoscroll
slow
fast
+/-
esc
set tempo
stop
Band: Alice In Chains
Song: Nutshell(MTV Unplugged)
Album: Jar Of Flies
Bassist: Mike Inez

Riff 1
Gb----------------------------|
Db----------------------------|
Ab---3-3-3-3--5---------------|
Eb--------------0-------------|

Riff 2a               Riff 2b
Gb------------------|----------|
Db-------5/75------|-----7-5---|
Ab---7-5------------|-7-5------|
Eb------------------|----------|

Riff 3
Gb---5-4----------------------|
Db-------5--------------------|
Ab----------3-5---------------|
Eb-------------0--------------|

Riff 4
Gb---/12-12-11------------------|
Db-------------12---------------|
Ab----------------11-12(Hold)---|
Eb----------------------12------|

Riff 5
Riff 4
Gb-------12-11------------------|
Db-------------12---------------|
Ab----------------11-12(Hold)---|
Eb----------------------12------|

He mixes it up a bit with riff 2, gotta listen to figure it out.
Suggest correction
Give kudos to tab author, rate the tab!
1 2 3 4 5
comments
print report bad tab
1 comment total.
0 reply
pricegreg01 10 Jul 06, 2015 03:34 PM

need a lot more listen to the un plugged version he uses a lot more notes

guest
You may want to rate the tab now too:
select rating
Wanna post a correction for this tab? Suggest correction