Oops, an error
Loading. Please wait.

Nutshell Chords

version 2
version 2

Whole song

Interactive

Video

63,986 views 36 this week
10 commentsread comments
1 2 3 4 5
x 15
add to favorites
launch autoscroll
font size
0
reset
transpose
0
reset
display chords
guitar tuner
Autoscroll
slow
fast
+/-
esc
set tempo
stop
Help us to improve Ultimate-Guitar.com Take our survey!
×
Difficulty
novice
Alice In Chains - Nutshell

 

 E       G       D     C
We chase misprinted lies
  E       G       D     C
We face the path of time
 E       G       D     C
And yet I fight
 E       G       D     C
And yet I fight
 E       G       D     C
This battle all alone
 E       G       D     C
No one to cry to
 E       G       D     C
No place to call home

 E       G       D     C
Oooh...Oooh...
 E       G       D     C
Oooh...Oooh...

 E       G       D     C
My gift of self is raped
 E       G       D     C
My privacy is raked
 E       G       D     C
And yet I find
 E       G       D     C
And yet I find
 E       G       D     C
Repeating in my head
 E       G       D     C
If I can't be my own
 E       G       D     C
I'd feel better dead

 E       G       D     C
Oooh...Oooh...
 E       G       D     C
Oooh...Oooh...




Suggest correction
comments
print report bad tab
10 comments total. Showing first comments.
+1 reply
nirvana4lf 142 Apr 13, 2006 12:08 PM

You fail to mention that its half-step tuning, and You have the wrong chords for the song.
The first chord is Em7, played like this:

eb|--3------------------------------------------------|
Bb|--3------------------------------------------------|
Gb|--0------------------------------------------------|
Db|--2------------------------------------------------|
Ab|--2------------------------------------------------|
Eb|--0------------------------------------------------|

The last chord of the progression is not C, its Cadd9th:

eb|---------------------------------------------------|
Bb|--3------------------------------------------------|
Gb|--0------------------------------------------------|
Db|--2------------------------------------------------|
Ab|--3------------------------------------------------|
Eb|---------------------------------------------------|

And the chord placing is ridiculously off.

0 reply
Jonnyseed 10 Sep 02, 2006 03:45 PM

There's no E major in this song

0 reply
HellOfAHat 52 Sep 05, 2006 07:44 PM

not accurate

guest
You may want to rate the tab now too:
select rating
Wanna post a correction for this tab? Suggest correction