Oops, an error
Loading. Please wait.

Nutshell Bass Tab

version 3
version 3

Whole song

Interactive

47,275 views 54 this week
10 commentsread comments
1 2 3 4 5
x 35
add to favorites
launch autoscroll
font size
0
reset
guitar tuner
Autoscroll
slow
fast
+/-
esc
set tempo
stop
Help us to improve Ultimate-Guitar.com Take our survey!
×
Author
Difficulty
intermediate
[Intro] 
  (before Layne starts singing)
G|------------------------------------------------5--4---------------|
D|----------7--5--------------------------7--5----------5------------|
A|----7--5----------3-3-3-3--5------7--5------------------3--5-------|
E|------------------------------0-------------------------------0----|

G|-------------------------------------------------|
D|----------7--5----------------------------7--5---|
A|----7--5----------3-3-3-3--5--------7--5---------|
E|------------------------------0------------------|

We Chase Misprinted Lies
G|-/12--12--11-----------------------------------------------------|
D|--------------12-----------------------------7--5----------------|
A|-----------------12--9/10--------------7--5----------------------|
E|-----------------------------------------------------------------|

We Face The Path of Time
G|----5--4---------------------------------------------------------|
D|----------5----------------------------------7--5----------------|
A|--------------3---5--------------------7--5----------------------|
E|----------------------0------------------------------------------|

And Yet I Fight, Yet I Fight, This Battle All Alone
G|--------------/12-----------12--11---------------------------------|
D|------------------------------------12-----------------------7--5--|
A|---------------------------------------12---9/10-------7--5--------|
E|-------------------------------------------------------------------|

No One To Cry To, No Place to Call Home
G|--------------------------------------------------------------------|
D|----------------------------------------------------7--5------------|
A|------------------3-3-3-3----5----------------7--5------------------|
E|----------------------------------0---------------------------------|

Oooooooooooooooh, Ooooooooooooooooooooh
G|-------------------5-4-----------------------------------------------|
D|-----------------------5-------------------------7--5----------------|
A|-------------------------3-5---------------7--5----------------------|
E|-----------------------------0---------------------------------------|

Oooooooooooooooh, Ooooooooooooooooooooh
G|---------------------------------------------------------------------|
D|-------------------------------------------------7--5----------------|
A|-------------------3-3-3-3--5--------------7--5----------------------|
E|------------------------------0--------------------------------------|

My Gift of Self is Raked
G|/12--12-11-----------------------------------------------------------|
D|------------12-----------------------7--5----------------------------|
A|---------------12--9/10--------7--5----------------------------------|
E|---------------------------------------------------------------------|

My Privacy is Raped
G|---5-4----------------------------------------------------------------|
D|-------5------------------------7--5----------------------------------|
A|---------3--5-------------7--5----------------------------------------|
E|---------------0------------------------------------------------------|

And Yet I Find, Yet I Find, Repeating In My Head
G|----------------------------------------------------------------------|
D|---------------------------------------------------------7--5---------|
A|-------------------------------3-3-3-3--5----------7--5---------------|
E|--------------------------------------------0-------------------------|

If I Can't Be My Own, I'd Feel Better Dead
G|----------------------------------------------------------------------|
D|-------------------------------------------------------7--5-----------|
A|----------------------3-3-3-3---5----------------7--5-----------------|
E|--------------------------------------0-------------------------------|

Oooooooooooooooh, Ooooooooooooooooooooooh
G|-------------/12---12-11--------------------------------------------|
D|-------------------------12-------------------------7--5------------|
A|----------------------------12-9/10-----------7--5------------------|
E|--------------------------------------------------------------------|

Ooooooooooooooh, Oooooooooooooooooooooooh
G|--------------------------------------------------------------------|
D|---------------------------------------------------7--5-------------|
A|------------------3-3-3-3--5-----------------7--5-------------------|
E|------------------------------0-------------------------------------|


************************************

| /  Slide up

************************************
Suggest correction
comments
print report bad tab
10 comments total. Showing first comments.
+4 reply
allstar340 153 Nov 28, 2007 04:53 PM

on the album its played one half sep down, im pretty sure play with it to see

+6 reply
Crashman77 150 Jul 19, 2008 05:46 AM

^^yeah its tuned 1/2 step down

+2 reply
motimon3 99 Sep 27, 2009 03:24 AM

yup.. what they said

guest
You may want to rate the tab now too:
select rating
Wanna post a correction for this tab? Suggest correction