Oops, an error
Loading. Please wait.
We have an official Nutshell tab made by UG professional guitarists. Check out the tab »
×
7,055 views 480 this week
no commentswrite comment
1 2 3 4 5
x 4
add to favorites
×
Save as Personal and add changes to this tab that will be seen only by you. Learn more ›
×
You can save this tab as Personal to edit and correct it or add notes. All changes will be seen only by you. Learn more »
launch autoscroll
font size
0
reset
how to read this tab
guitar tuner
backing track
0:00
0:00
edit
Autoscroll
slow
fast
+/-
esc
set tempo
stop
Nutshell (Acoustic) - Alice In Chains
Tabbed by: Ian
Tuning: Eb

Rhythm guitar, play this once (intro)
E Major E5   G Major   D Major             Cadd9                          Em7 E5
e|-0------------3--------2------0-0-0-0-0-0-0-0-0-0-0-0-0-0-0-0-0-0-0-3----3-------3----3---------------|
B|-0------------3--------3------3-3-3-3-3-3-3-3-3-3-3-3-3-3-3-3-3-3-3-3----3-------3----3---------------|
G|-1------------0---0----2------0-0-0-0-0-0-0-0-0-0-0-0-0-0-0-0-0-0-0------0----------------------------|
D|-2------------0---0----0------2-2-2-2-0-2-2-2-2-0-2-2-2-2-2-2-2-2-2------2---2-2----2-----------------|
A|-2--2---------2---2-----------3-3-3-3-3-3-3-3-3-3-3-3-3-3-3-3-3-3-3------2---2-2----2-----------------|
E|-0--0---------3---3------------------------------------------------------0---0-0----0-----------------|

Main chord progression, play through the rest of song
  Em7    G Major   D Major             Cadd9                          Em7 E5
e|-3--------3--------2------0-0-0-0-0-0-0-0-0-0-0-0-0-0-0-0-0-0-0-3----3-------3----3----------------|
B|-3--3-----3--------3------3-3-3-3-3-3-3-3-3-3-3-3-3-3-3-3-3-3-3-3----3-------3----3----------------|
G|-0--0-----0---0----2------0-0-0-0-0-0-0-0-0-0-0-0-0-0-0-0-0-0-0------0-----------------------------|
D|-2--2-----0---0----0------2-2-2-2-0-2-2-2-2-0-2-2-2-2-2-2-2-2-2------2---2-2----2------------------|
A|-2--2-----2---2-----------3-3-3-3-3-3-3-3-3-3-3-3-3-3-3-3-3-3-3------2---2-2----2------------------|
E|-0--------3---3------------------------------------------------------0---0-0----0------------------|

Lead riff 1
e|--------12------------------------------------------------10----------------------------|
B|----------12--------------------------------------------------10------------------------|
G|-------------12-11br-9-----------------------9-10-9v--------------7---------------------|
D|-----------------------9-10v---------9-10-12-------------------------7br-5-4v-----------|
A|-2-2------------------------------------------------------------------------------------|
E|-0-0-0----------------------------------------------------------------------------------|

Lead riff 2
e|-12--------------------------------------------------------10----------------------------------|
B|---12----------------------------------------------------------10------------------------------|
G|-----12-11br-9---------------------9-11-12-11h12p11-9-11-9v-----------7---------------------------|
D|---------------9-10v------9-10-12-----------------------------------------7br-5-4v-----------------|
A|-----------------------------------------------------------------------------------------------|
E|-----------------------------------------------------------------------------------------------|

Lead riff 3 (X2)
e|-12----------------------------10------------------------------------------|
B|---12----------------------------10----------------------------------------|
G|-----12-11br-9---------------------7---------------------------------------|
D|--------------9-10v-------------------7br-5-4v-----------------------------|
A|---------------------------------------------------------------------------|
E|---------------------------------------------------------------------------|

[Solo]
e|---------------------------0-0-0-0-0-0-0-0-0-0-0-0-0-0-0-0-0------------------------------------------|
B|---------------------------3-3-3-3-3-3-0-0-0-3-3-3-0-0-0-3-3------------------------------------------|
G|------0-0--4br-------------0---0-0-0-0-0-0-0-0-0-0-0-0-0-0-0------------------------4br-----------5s7-|
D|---------------5-4br-------2---2-2-2-2-2-2-2-2-2-2-2-2-2-2-2----------5-----------------5-4br---------|
A|----------------------5-7--3---3-3-3-3-3-3-3-3-3-3-3-3-3-3-3---5h7---------7v------------------5------|
E|-------------------------------------------------------------------0-----0-----------------------------|

e|--------------0-0-0-0-0-0-0-0-0-0-0-0-0-0-0-0-0-----------------------------------------|
B|--------------3-3-3-3-3-3-3-3-3-3-3-3-0-0-0-3-3-----------------------------------------|
G|--------------0---0-0-0-0-0-0-0-0-0-0-0-0-0-0-0-----------------------------------------|
D|--------------2---2-2-2-2-2-2-2-2-2-2-2-2-2-2-2----------5------------------------------|
A|--------------3---3-3-3-3-3-3-3-3-3-3-3-3-3-3-3---5-7----------7v-----------------------|
E|-------------------------------------------------------0----0---------------------------|

e|-----------------------------10-------------------------------------------------------------------------|
B|----------------8---8----10b----10r-8-10-8-7-8-7--------------------------------------------------------|
G|-----------7-9v---9-------------------------------9-7-9-7v--7-9-7---------------------------------------|
D|-----5-7s9--------------------------------------------------------7-8-9-8-7-5v---7-5-7-5----------------|
A|-5-7-------------------------------------------------------------------------------------7v-------------|
E|--------------------------------------------------------------------------------------------------------|

e|--------------------------------0-----0-0---------------------------------------------------|
B|---------------------7-8-10-8-7---7s8--------7------------------------------------------------|
G|------------7-9-9v-9-----------------------------9--7--7h9-7-7v-7-----------------------------|
D|-----5-7s9----------------------------------------------------------9-9-9-7-9-7-5-7-5-7b------|
A|-5-7------------------------------------------------------------------------------------------|
E|----------------------------------------------------------------------------------------------|

************************************

| br  Bend release
| h   Hammer-on
| p   Pull-off
| r   Release
| b   Bend

************************************

            
            
Suggest correction
Creating personal tab
Creating personal tab
You can edit any tab online and save it as your Personal.

You can edit, replace or remove any tab part or add personal notes – all changes will be seen only by you.

Personal tabs can be accessed anytime from any device, even offline.
Learn more »
comments
print report bad tab
guest
You may want to rate the tab now too:
select rating
Wanna post a correction for this tab? Suggest correction