Oops, an error
Loading. Please wait.

Over Now Bass Tab

version 1
version 1

Acoustic

Whole song

Interactive

3,110 views 18 this week
no commentswrite comment
1 2 3 4 5
x 4
add to favorites
launch autoscroll
font size
0
reset
guitar tuner
Autoscroll
slow
fast
+/-
esc
set tempo
stop
Help us to improve Ultimate-Guitar.com Take our survey!
×
Author
tuning Db Ab Db Gb
^ = bend note
h = hammer on

:02 x2
Gb|------------------------------------------------------------------|
Db|-----4-4-2-4--------------------------2-4-2-4---------------------| 
Ab|-------------2-0------------------------------2-0-----------------| 
Db|-4-4-------------4-4-4-4-4-4-4-4--0-0-------------0-0-0-0-0-0-0-0-|

:19 x2
Gb|---------------------------------|
Db|-----4-4-2-4---------------------| 
Ab|-------------2-0-----------------|
Db|-4-4-------------4-4-4-4-4-4-4-4-|

Gb|---------------------------------|
Db|-----2-4-2-4---------------------|
Ab|-------------2-0-----------------| 
Db|-0-0-------------0-0-0-0-0-0-0-0-| 

:32 x3
Gb|---------------------------------|
Db|-----4-4-2-4---------------------| 
Ab|-------------2-0-----------------|
Db|-4-4-------------4-4-4-4-4-4-4-4-|

Gb|---------------------------------|
Db|-----2-4-2-4---------------------|
Ab|-------------2-0-----------------| 
Db|-0-0-------------0-0-0-0-0-0-0-0-|

Gb|---------------------------------|
Db|-----4-4-2-4---------------------| 
Ab|-------------2-0-----------------|
Db|-4-4-------------4-4-4-4-4-4-4-4-|

:53
Gb|---------------------------------------------------------------------------------|
Db|---------------------------------------------------------------------------------| 
Ab|---------------------------------------------------------------------------------|
Db|-7-7-7-7-7-7-7-7-7-7-7-7-7-7-7-7-6-6-6-6-6-6-6-6-9-9-9-9-9-9-9-9-9-9-9-9-9-9-9-9-|

1:04 x3
Gb|------------------------------------------------------------------|
Db|-----4-4-2-4--------------------------2-4-2-4---------------------| 
Ab|-------------2-0------------------------------2-0-----------------| 
Db|-4-4-------------4-4-4-4-4-4-4-4--0-0-------------0-0-0-0-0-0-0-0-|

1:35 x3
Gb|---------------------------------|
Db|-----4-4-2-4---------------------| 
Ab|-------------2-0-----------------|
Db|-4-4-------------4-4-4-4-4-4-4-4-|

Gb|------------------------------------------------------------------|
Db|-----2-4-2-4--------------------------4-4-2-4---------------------|
Ab|-------------2-0------------------------------2-0-----------------|
Db|-0-0-------------0-0-0-0-0-0-0-0--4-4-------------4-4-4-4-4-4-4-4-|

1:56
Gb|---------------------------------------------------------------------------------|
Db|---------------------------------------------------------------------------------| 
Ab|---------------------------------------------------------------------------------|
Db|-7-7-7-7-7-7-7-7-7-7-7-7-7-7-7-7-6-6-6-6-6-6-6-6-9-9-9-9-9-9-9-9-9-9-9-9-9-9-9-9-|

2:07 x2
Gb|------------------------------------------------------------------|
Db|-----4-4-2-4--------------------------2-4-2-4---------------------| 
Ab|-------------2-0------------------------------2-0-----------------| 
Db|-4-4-------------4-4-4-4-4-4-4-4--0-0-------------0-0-0-0-0-0-0-0-|

2:24 x2
Gb|------------|
Db|------------|
Ab|------------|
Db|-4--------0-|

2:42
Gb|---------------------------------------------------------|
Db|--------------------------------------------------7^--7^-|
Ab|-------------------------------5----5-7----7-9-----------|
Db|-4----4-6----6-7----7-9--11------------------------------|

2:59
Gb|-------------------------------------------------------------|
Db|--------------------------------------------------7^--7^--7^-|
Ab|-------------------------------5----5-7----7-9---------------|
Db|-4----4-6----6-7----7-9--11----------------------------------|

3:07
Gb|---------------------------------------------------------|
Db|--------------------------------------------------7^--7^-|
Ab|-------------------------------5----5-7----7-9-----------|
Db|-4----4-6----6-7----7-9--11------------------------------|

3:16 x2
Gb|---------------------------------|
Db|-----4-4-2-4---------------------| 
Ab|-------------2-0-----------------|
Db|-4-4-------------4-4-4-4-4-4-4-4-|

Gb|---------------------------------|
Db|-----2-4-2-4---------------------|
Ab|-------------2-0-----------------| 
Db|-0-0-------------0-0-0-0-0-0-0-0-|

3:29 x3
Gb|---------------------------------|
Db|-----4-4-2-4---------------------| 
Ab|-------------2-0-----------------|
Db|-4-4-------------4-4-4-4-4-4-4-4-|

Gb|------------------------------------------------------------------|
Db|-----2-4-2-4--------------------------4-4-2-4---------------------|
Ab|-------------2-0------------------------------2-0-----------------|
Db|-0-0-------------0-0-0-0-0-0-0-0--4-4-------------4-4-4-4-4-4-4-4-|

3:50
Gb|---------------------------------------------------------------------------------|
Db|---------------------------------------------------------------------------------| 
Ab|---------------------------------------------------------------------------------|
Db|-7-7-7-7-7-7-7-7-7-7-7-7-7-7-7-7-6-6-6-6-6-6-6-6-9-9-9-9-9-9-9-9-9-9-9-9-9-9-9-9-|

4:01 x2
Gb|------------------------------------------------------------------|
Db|-----4-4-2-4--------------------------2-4-2-4---------------------| 
Ab|-------------2-0------------------------------2-0-----------------| 
Db|-4-4-------------4-4-4-4-4-4-4-4--0-0-------------0-0-0-0-0-0-0-0-|

4:18
Gb|---------------------------------------------|
Db|---------------------------------------------|
Ab|-12--12-11--11-9--9-7--7-5--5-4--4--4h7--7-9-|
Db|---------------------------------------------|

4:27
Gb|---------------------------------------------------------|
Db|--------------------------------------------------7^--7^-|
Ab|-------------------------------5----5-7----7-9-----------|
Db|-4----4-6----6-7----7-9--11------------------------------|

4:35
Gb|--------------------------------------------------------|
Db|--------------------------------------------------------|
Ab|--------------------------------------------------------|
Db|-4----4-6----6-7----7-9-11-12----12-11----11-14--14-16--|

4:44
Gb|---------------------------------------------------------|
Db|--------------------------------------------------7^--7^-|
Ab|-------------------------------5----5-7----7-9-----------|
Db|-4----4-6----6-7----7-9--11------------------------------|

4:52
Gb|------------|
Db|------------|
Ab|------------|
Db|-4--------0-|

5:01 x3
Gb|---------------------|
Db|---------------------|
Ab|---------------------|
Db|-4-4-4/-16---------0-|

5:27 x2
Gb|------------|
Db|------------|
Ab|------------|
Db|-4--------0-|
Suggest correction
comments
print report bad tab
guest
You may want to rate the tab now too:
select rating
Wanna post a correction for this tab? Suggest correction