Oops, an error
Loading. Please wait.

Over Now Acoustic Tab

version 2
version 2

Whole song

Interactive

32,887 views 78 this week
1 commentread comment
1 2 3 4 5
excellent!
x 13
add to favorites
launch autoscroll
font size
0
reset
how to read this tab
guitar tuner
Tab Pro tools
  • play this tab
  • loop segment
  • change instrument
  • show fretboard
  • metronome
Autoscroll
slow
fast
+/-
esc
set tempo
stop
Contributor
Difficulty
advanced
----------------------------------------------------------------------------
                Over Now (acoustic)- Alice In Chains
----------------------------------------------------------------------------
Tabbed by: Brack
Tuning: Open D Down half a step: Db Ab Db F Ab Db

  P.M.              P.M.     Pm. pm   P.M.            P.M.   pm  pm
e|------7-6-4------------4-4---4---4------3-2-0-----------------------------|
B|------4-4-4-7-6-4------4-4---4---4------0-0-0-3-2-0-----------------------|
G|------4-4-4-4-4-4------5-4---5---4------0-0-0-0-0-0-----1-0---1-----------|
D|------4-4-4-4-4-4------4-4---4---4------------0-0-0-----0-0---0---0-------|
A|------4-4-4-4-4-4------6-4---6---4----------------------2-0---2---0-------|
E|-4-4--4-4-4-4-4-4--4-4-4-4-4-4-4-4--0-0-------------0-0-0-0-0-0-0-0-------|


Chorus
   P.M..   pm
e|--------------------------------------------------------------------------|
B|-------10---10--10-10--10-10-10-10-10-10-10---9-9--9--9--9-9--9--9---12---|
G|-------7-----7---7--7---7--7--7--7-7---7--7---9-9--9--9--9-9--9--9----9---|
D|-------7-----7---7--7---7--7--7--7-7---7--7---9-9--9--9--9-9--9--9----9---|
A|-------7-----7---7--7---7--7--7--7-7---7--7---9-9--9--9--9-9--9--9----9---|
E|--7--7-7--7--7---7--7---7--7--7--7-7---7--7---6-6--6--6--6-6--6--6----9---|

e|--------------------------------------------------------------------------|
B|12-12-12-12-12-12----12-12-12-12-12-12------------------------------------|
G|-9--9--9--9--9--9-----9--9--9--9--9--9------------------------------------|
D|-9--9--9--9--9--9-----9--9--9--9--9--9------------------------------------|
A|-9--9--9--9--9--9-----9--9--9--9--9--9------------------------------------|
E|-9--9--9--9--9--9-----9--9--9--9--9--9------------------------------------|

Interlude Gtr1
e|--------------------------2-------------------------------0---------------|
B|----0-------2-----4---------4---------0-----2-----4---------4-------------|
G|--3---3-------3-----3---3-----3-----3---3-----3-----3---3-----3-----------|
D|--------4-------4-----4---------4-0-------0-----0-----0---------0---------|
A|--------------------------------------------------------------------------|
E|--------------------------------------------------------------------------|

Interlude Gtr2
e|--------------------------2---------------------------------0-------------|
B|----0------2------4---------4---------0-------2-----4---------4-----------|
G|--3---3-------3-----3---3-----3-----3---3---3---3-----3---3-----3---------|
D|--------4-------4-----4---------4-0-------0-------0-----0-----------------|
A|--------------------------------------------------------------------------|
E|--------------------------------------------------------------------------|

Interlude Gtr1
e|--------------------------2-------------------------------0---------------|
B|----0------2-----4----------4---------0-----2-----4---------4-------------|
G|--3---3-------3-----3---3-----3-----3---3-----3-----3---3-----3-----------|
D|4--------4------4-----4---------4-0-------0-----0-----0---------0---------|
A|--------------------------------------------------------------------------|
E|--------------------------------------------------------------------------|

Interlude Gtr2
e|------------------------2-----------------------------------2--------------|
B|----0-----2-----4---------4-----------0-------2-----4---------4------------|
G|--3---3-----3-----3---3-----3-------3---3---3---3-----3---3----------------|
D|4-------4-----4-----4---------4---0-------0-------0-----0------------------|
A|---------------------------------------------------------------------------|
E|---------------------------------------------------------------------------|

Guitar solo
e|--------------------------------------------------------------------------|
B|-------0---2------4-----4-4-5-4-5-7-7/9-9v-7-9-11-12-11-12--9-------------|
G|-----3---------3----------------------------------------------------------|
D|-0h4-----4---4------4-4---------------------------------------------------|
A|--------------------------------------------------------------------------|
E|--------------------------------------------------------------------------|

e|--------------------------------------------------------------------------|
B|-9-11-12-11h12p11----9----------------------9-----------------------------|
G|------------------12---12-10-12-10-7-8-7-7b---7/5-3-5-3h5p3-2-3-2---------|
D|------------------------------------------------------------------2-2/4---|
A|--------------------------------------------------------------------------|
E|--------------------------------------------------------------------------|
                                               Hold Bend
e|--------------------------------------------------------------------------|
B|----------------------------------------11--11b-11------9-8---------------|
G|------2-3/5-3--5/7-5-7h8-7h8-8-7-8/10-8-----------------------------------|
D|--2-4---------------------------------------------------------------------|
A|--------------------------------------------------------------------------|
E|--------------------------------------------------------------------------|

e|--------------------------------------------------------------------------|
B|--------------------------------------------------------------------------|
G|------12b--12v-----12-12-12-10-12-10-10-8v~~~~~~~~~~~---------------------|
D|--11b---------------------------------------------------------------------|
A|--------------------------------------------------------------------------|
E|--------------------------------------------------------------------------|

Outro
e|--------------------------------------------------------------------------|
B|----0-----2-----4-----4-45-5/7-7v-7/9-9v----------------------------------|
G|--3---3-----3-----3-----------------------12p10-10-10/12-12-12------------|
D|4-------4-----4-----4------------------------------------------10---------|
A|--------------------------------------------------------------------------|
E|--------------------------------------------------------------------------|
       Hold Bend...
e|--------------------------------------------------------------------------|
B|--------------------------------------------------------------------------|
G|-----12b-12-12-12---12-12-12-12-12-12-12b-12------------------------------|
D|-11b-----------------------------------------12~~~~~~~~~~~~~~vvv----------|
A|--------------------------------------------------------------------------|
E|--------------------------------------------------------------------------|
Guitar 1
e|----0-------0-------0-------0------------0-------0-------0-------0-------0-|
B|--------4-------4-------4-------4----4-------4-------4-------4-------4-----|
G|------0---0---0---0---0---0---0--------0---0---0---0---0---0---0---0---0---|
D|---------------------------------------------------------------------------|
A|---------------------------------------------------------------------------|
E|-4--------------------------------0----------------------------------------|
Guitar 2
e|--------0-----------0-------0--------------------0-------0-------0--------|
B|------0---------4-------4-------4----0---------------4-------4------------|
G|--------------0---0---0---0---0----------4-----0---0---0---0---0----------|
D|---------------------------------------0----------------------------------|
A|--------------------------------------------------------------------------|
E|-4--------------------------------0---------------------------------------|
Guitars 1 and 2
e|----0-------0-------0-------0------------0-------0-------0-------0-------0-|
B|--------4-------4-------4-------4----4-------4-------4-------4-------4-----|
G|------0---0---0---0---0---0---0--------0---0---0---0---0---0---0---0---0---|
D|---------------------------------------------------------------------------|
A|---------------------------------------------------------------------------|
E|-4--------------------------------0----------------------------------------|
                                     Harm.    Guitar 2
e|----0---0---0-------0-------0---------------------------------------------|
B|----------------4-------4-------0---12------------------------------------|
G|------0---0---0---0---0---0---0-----12------------------------------------|
D|------------------------------------12------------------------------------|
A|------------------------------------12------------------------------------|
E|-4----------------------------------0-------------------------------------|
Guitar 1
e|----0-------0-------0-------0---------------------------------------------|
B|--------4-------4-------4-------0-----------------------------------------|
G|------0---0---0---0---0---0---0-------------------------------------------|
D|------------------------------------0-------------------------------------|
A|------------------------------------0-------------------------------------|
E|-4----------------------------------0-------------------------------------|
Guitars 1 and 2
e|----0--------------------------------0------------------------------------|
B|--------4--------------------------------4--------------------------------|
G|------0--------------------------------0----------------------------------|
D|--------------------------------------------------------------------------|
A|--------------------------------------------------------------------------|
E|-4---------------------------------0--------------------------------------|
            Hold Bend
e|--------------------------------------------------------------------------|
B|--------------------------------------------------------------------------|
G|------12b--12-12b-12-12---------------------------------------------------|
D|--11b-------------------12------------------------------------------------|
A|--------------------------------------------------------------------------|
E|--------------------------------------------------------------------------|

END
comments
print report bad tab
1 comment total.
0 reply
Lajjan wrote on August 19 2013, 06:58 pm

I love it, thanks for the tab

I want to post or [tab]
guest
You may want to rate the tab now too:
select rating
Please do not post tabs as comments. Select "correction" instead!