Oops, an error
Loading. Please wait.

Over Now tab

version 6
version 6

Whole song

Interactive

365 views 3 this week
no commentswrite comment
1 2 3 4 5
3 more votes to show rating
add to favorites
×
Save as Personal and add changes to this tab that will be seen only by you. Learn more ›
×
You can save this tab as Personal to edit and correct it or add notes. All changes will be seen only by you. Learn more »
launch autoscroll
font size
0
reset
how to read this tab
guitar tuner
backing track
0:00
0:00
edit
Autoscroll
slow
fast
+/-
esc
set tempo
stop
About this tab version
Figured out the guitar solos and I believe this is the most accurate version. Was this info helpful? Yes No
-------------------------------------------------------------------------------
                             OVER NOW - Alice In Chains
-------------------------------------------------------------------------------
Tabbed by:
E-mail:

Tuning: Open Db/C#
Guitar 1 - Electric guitar w/distortion 
Guitar 2 - Electric guitar w/distortion
Guitar 3 - Acoustic

Took a long time but I finally figured out the solos/leads for this song, I notice their are 3 other
standard tabs on here, however they all have average reviews or did not include the solos (or both).
b - bend r - release bend v - vibrato s - slide h - hammer on
p - pull off () - optional notes PM - palm mute X - dead note/mute


Verse Rhythm - Guitars 1, 2 and 3
e|-----7-6-4-----------------------------------3-2-0--------------------------------------------|
B|-----4-4-4-7-6-4-----------------------------0-0-0-3-2-0--------------------------------------|
G|-----4-4-4-4-4-4------5-4-----5-----4--------0-0-0-0-0-0-----1-0----1-----0-------------------|
D|-----4-4-4-4-4-4------4-4-----4-----4--------0-0-0-0-0-0-----0-0----0-----0-------------------|
A|-4-4-4-4-4-4-4-4--4-4-6-4-----6-----4---0-0--0-0-0-0-0-0-0-0-2-0----2-----0-------------------|
E|-4-4-4-4-4-4-4-4--4-4-4-4-(4)-4-(4)-4---0-0--0-0-0-0-0-0-0-0-0-0-(0)0-(0)-0-------------------|
   PM               PM       PM    PM     PM               PM      PM   PM

First lead lick - Guitar 1 (around 0:48)
e|---------------------------------------------------------------------------|
B|---------------------------------------------------------------------------|
G|---------------------------------------------------------------------------|
D|---------------------------------------------------------------------------|
A|---------------------------------------------------------------------------|
E|-s4v-----s12-10-9-7v-------------------------------------------------------|

Chorus rhythm (chords)- Guitars 2 and 3 (begins around 1:33) 
e|------------------------------------------------------------------------------|
B|--10-------9--------12--------------------------------------------------------|
G|--7--------6--------9---------------------------------------------------------|
D|--7--------6--------9---------------------------------------------------------|
A|--7--------6--------9---------------------------------------------------------|
E|--7--------6--------9---------------------------------------------------------|

Chorus lead (first time) - Guitar 1 (begins around 1:33)
e|------------------------------------------------------------------------------|
B|------------------------------------------------------------------------------|
G|-----------------------------14v--10------------------------------------------|
D|-----------------------11br----------11v--------------6b----------------------|
A|-7s12v-------------------------------------------4br--------------------------|
E|------------------------------------------------------------------------------|

Chorus lead (second time) - Guitar 1 (begins around 2:39)
e|---------------------------------------------------------------------------|
B|-----------------------------16v-------------------------------------------|
G|------------------14v------------------------------------------------------|
D|------------11br--------14-------------------------------------------------|
A|-7s12v---------------------------------------------------------------------|
E|---------------------------------------------------------------------------|

Interlude rhythm (acoustic) - Guitar 3 (begins around 3:07 and 5:06)
e|---------------------------2---------------------------------0-------------|
B|------0------2------4--------4-----------0-----2-----4---------4-----------|
G|----3---3------3------3--3-----3-------3---3-----3-----3---3-----3---------|
D|--4-------4------4------4--------4---0-------0-----0-----0---------0-------|
A|---------------------------------------------------------------------------|
E|---------------------------------------------------------------------------|

Interlude rhythm (electric) - Guitar 2 (begins around 3:07 and 5:06)
e|------------------------------------------------------------------------------|
B|------------------------------------------------------------------------------|
G|------------------------------------------------------------------------------|
D|--4------------0-0------------------------------------------------------------|
A|--4------------0-0------------------------------------------------------------|
E|--4------------0-0------------------------------------------------------------|

Interlude solo - Guitar 1
e|-------------------------------------------------------------------------------------|
B|---------------------------------------19--------------------------------------------|
G|------------12s14-15-14v--14-15-17-17b----17r-15v-14-15-14---------------------------|
D|-12b-14 14v------------------------------------------------14v-14-16-14--------------|
A|-----------------------------------------------------------------------14v-14br------|
E|--------------------------------------------------------------------------------16v--|

(Some muddy and low frequency notes between 3:34 and 3:49, somewhat inaudible; this part begins at 3:49)
e|---------------------------------------------------------------------------|
B|---------------------------------------------------------------------------|
G|---------------------------------------------------------------------------|
D|-----------------------------------12b--10h12------------------------------|
A|----12b----------------------11br---------------11b------------------------|
E|-(0)-----------------------------------------------------------------------|

Chorus lead (third time) - Guitar 1 (begins around 4:36)
e|-------------------------14------------------------------------------------|
B|--------------12br--12-----(12)-10v----16-16v------------------------------|
G|---------------------------------------------------------------------------|
D|---------------------------------------------------------------------------|
A|-7s12v---------------------------------------------------------------------|
E|---------------------------------------------------------------------------|

Final solo - Guitar 1 (begins around 5:29)
e|--------------------------------------------------------------------------------|
B|--------------------------------------------------------------------------------|
G|--------------------------------------------------------------------------------|
D|----------------11-12-11---14------14b-(14b)-(14b)-14b-14r---(12)-12h14-12------|
A|-------------------------14--12v------------------------------------------12v---|
E|-11-12-14-12v-------------------------------------------------------------------|

e|--------------------------------------------------------------------------------------------21b-21b-21b---|
B|-------------------------------------------17-16-17-19b-19-17-16-17-16-14b-14h16p14-12h14p12--------------|
G|--------------------------15b-15v-14h15-14----------------------------------------------------------------|
D|-----------11-12s14-14-12---------------------------------------------------------------------------------|
A|-(0)-12-12------------------------------------------------------------------------------------------------|
E|----------------------------------------------------------------------------------------------------------|

e|-19--24b-24b----24b-24b--23v-----------------------------------------------|
B|---------------------------------------------------------------------------|
G|---------------------------------------------------------------------------|
D|---------------------------------------------------------------------------|
A|---------------------------------------------------------------------------|
E|---------------------------------------------------------------------------|
Outro - Guitar 3 (begins around 6:00)
       
e|---0------------0---------0-------0------0------------0------0-----0-----0-|
B|-------4-----------4----------4-------4------4-----4-----4-----4-----4-----|
G|-----0--------0---0-----0---0---0---0---0--0---------0-----0-----0-----0---|
D|---------------------------------------------------------------------------|
A|---------------------------------------------------------------------------|
E|-4----------------------------------------------0--------------------------|

Outro - Guitar 2
e|-----------------------------------------------------------------------------|
B|-----------------------------------------------------------------------------|
G|-----------------------------------------------------------------------------|
D|-4----------------------------------------------0----------------------------|
A|-4----------------------------------------------0----------------------------|
E|-4----------------------------------------------0----------------------------|

Outro - Guitar 1
e|---------------------------------------------------------------------------|
B|---------------------------------------------------------------------------|
G|--------12b----10----------------------------------------------------------|
D|----11br-----------11v-----------------------------------------------------|
A|---------------------------------------------------------------------------|
E|---------------------------------------------------------------------------|

Ending of outro - Guitar 3 (around 6:34)
e|------0----------0-----------------------------------------------------------|
B|----------4----------4-------------------------------------------------------|
G|--------0----------0---------------------------------------------------------|
D|-----------------------------------------------------------------------------|
A|-----------------------------------------------------------------------------|
E|---4-----------0-------------------------------------------------------------|

Ending of outro - Guitar 2 
e|-----------------------------------------------------------------------------|
B|-----------------------------------------------------------------------------|
G|-----------------------------------------------------------------------------|
D|-----------------------------------------------------------------------------|
A|---4------------0------------------------------------------------------------|
E|---4------------0------------------------------------------------------------|

Ending of outro - Guitar 1
e|---------------------------------------------------------------------------|
B|---------------------------------------------------------------------------|
G|--------12b-------------10-------------------------------------------------|
D|--11br---------------------11b---------------------------------------------|
A|---------------------------------------------------------------------------|
E|---------------------------------------------------------------------------|

            
            
Suggest correction
Creating personal tab
Creating personal tab
You can edit any tab online and save it as your Personal.

You can edit, replace or remove any tab part or add personal notes – all changes will be seen only by you.

Personal tabs can be accessed anytime from any device, even offline.
Learn more »
Give kudos to tab author, rate the tab!
1 2 3 4 5
comments
print report bad tab
guest
You may want to rate the tab now too:
select rating
Wanna post a correction for this tab? Suggest correction