Oops, an error
Loading. Please wait.

Private Hell Bass Tab

version 1
version 1

Whole song

Interactive

967 views 1 this week
no commentswrite comment
1 2 3 4 5
please rate
add to favorites
launch autoscroll
font size
0
reset
guitar tuner
Autoscroll
slow
fast
+/-
esc
set tempo
stop
Help us to improve Ultimate-Guitar.com Take our survey!
×
Author
guy7bmwm5 1,373
tuning Eb Ab Db Gb  

:00
Gb|---------------------------------------------------------------------------|
Db|---------------------------------------------------------------------------|
Ab|--------------------5--5----------------4-5---5-----------------4-5--------|
Eb|--7---75---4-5-6-7-------5---4-5-6-7--7----------5---4-5-6-7--7-----7-6-5--|
 
:17 x2
Gb|----------------------------------|
Db|----------------------------------|
Ab|--------------------------5--5----|
Eb|--4-5-6-7---75---4-5-6-7-------5--| 

Gb|----------------------------------|
Db|-------------------------------7--|
Ab|--------------------------5--5----| 
Eb|--4-5-6-7---75---4-5-6-7----------|

:45
Gb|--------------------------------------------------------------|
Db|--------------------------------------------------------------|
Ab|-----------------5------------------------------------5--5----|
Eb|--4-5-7---75---7---7-6-5---7---75---7---75---4-5-6-7-------5--| 
 
1:03
Gb|-----------------------------------------------------------------|
Db|-----------------------------------------------------------------|
Ab|--------------------------5--------------------------------------|
Eb|--4-5-6-7---75---4-5-6-7----765---8-7--3-2--3-5---8-7--3-2--3-5--|  

1:23
Gb|----------------------------------|
Db|----------------------------------|
Ab|----------------------------------|
Eb|--8-7--3-2--7777777--7-6-7-8-888--|

1:31 x3
Gb|-----------------------------------------|
Db|-----------------------------------------|
Ab|-----------------------------------------|
Eb|--33333--58777777-578777777-7-6-7-8-888--|  

1:59
Gb|------------------|
Db|------------------|
Ab|------------------|
Eb|--33333--5877777--|

2:04
Gb|-----------------------------------------------------------|
Db|--------------------------------------------------------7--|
Ab|--------------------5--5---------------------------5--5----|
Eb|--7---75---4-5-6-7-------5---4-5-6-7---75---4-5-7----------|
 
2:23
Gb|----------------------------------------------------------|
Db|--------------------------7-------------------------------|
Ab|---------------------5--5-----------------------5------7--| 
Eb|--7---765---4-5-6-7-----------765---75---4-5-7------76----|
 
2:42
Gb|-------------------------------------------------------------|
Db|----------------------------------------------------------7--|
Ab|--------------------5--5-----------------------------5--5----| 
Eb|--7---75---4-5-6-7-------5---4-5-6-7---75---4-5-6-7----------|

2:59
Gb|----------------------------------------------------------|
Db|----------------------------------------------------------|
Ab|----------------5-4--------5--5---------------------------| 
Eb|--4-5-6-7---75------7-6-5-------5---7---75---4-5-6-7--75--|
 
3:17
Gb|----------------------------------|
Db|-------------------------------7--|
Ab|--------------------------5-------| 
Eb|--4-5-6-7---75---4-5-6-7----76----|

3:26
Gb|----------------------------------------------------------------------|
Db|----------------------------------------------------------------------|
Ab|--5-4--------------5-4------------------------------------------------|
Eb|------7-6-5---75-------7-6-5---7--75---8-7--3-2--3-5---8-7--3-2--3-5--|  
 
3:47
Gb|----------------------------------|
Db|----------------------------------|
Ab|----------------------------------|
Eb|--8-7--3-2--7777777--7-6-7-8-888--|

3:55 x5
Gb|-----------------------------------------|
Db|-----------------------------------------|
Ab|-----------------------------------------|
Eb|--33333--58777777-578777777-7-6-7-8-888--| 

4:32 
Gb|----------------------------------------------------------------|
Db|----------------------------------------------------------------|
Ab|----------------------------------------------------------------|
Eb|--7777777-7-6-7-8-888----7777777-7-6-7-8-888---33333--58777777--|
 
4:46
Gb|-------------------------------------------------------------|
Db|----------------------------------------------------------7--|
Ab|--------------------5--5-----------------------------5-------|
Eb|--7---75---4-5-6-7-------5---4-5-6-7---75---4-5-6-7----76----|
 
5:04
Gb|------------------------------------------------------------|
Db|---------------------------------------------------------7--|
Ab|--------------------5--5----------------------------5--5----| 
Eb|--7---75---4-5-6-7-------5--4-5-6-7---75---4-5-6-7----------|

Gb|-----------|
Db|-----------|
Ab|-----------|
Eb|--4-5-6-7--|
Suggest correction
What's this?
You can suggest a correction to this tab. Community and Mods will review your correction and vote to approve or reject it.
comments
We did not receive enough feedback on this tab! Please rate:
print report bad tab
1 2 3 4 5
guest
You may want to rate the tab now too:
select rating
Please do not post tabs as comments. Select "correction" instead!