Oops, an error
Loading. Please wait.

Private Hell Tab

version 2
version 2

Whole song

Interactive

1,171 views 9 this week
no commentswrite comment
1 2 3 4 5
please rate
add to favorites
launch autoscroll
font size
0
reset
how to read this tab
guitar tuner
Autoscroll
slow
fast
+/-
esc
set tempo
stop
Help us to improve Ultimate-Guitar.com Take our survey!
×
Author
Difficulty
Tuning
intermediate
D# G# C# F# A# D#
Artist: Alice in Chains
Song: Private Hell
Album: Black Gives Way To Blue
Tabbed by: Sargentcrunch

This is tabbed out for one guitar, except for the outro where there isn't much
lead guitar playing, so I will let you choose which you want to play.

Intro/Verse
eb|---------------------------------------------------|
Bb|---------------------------------------------------|
Gb|-------2-------------------------------------------|
Db|---0-------0---0-----------------------------------|
Ab|-2---2-------2-------------------------------------|
Eb|---------------------------------------------------|

Pre-Chorus
eb|---------------------------------------------------|
Bb|---------------------------------------------------|
Gb|---------------------------------------------------|
Db|-9b11-9~~~~-----4-5b7-4~~~~------------------------|
Ab|---------------------------------------------------|
Eb|---------------------------------------------------|

eb|---------------------------------------------------|
Bb|---------------------------------------------------|
Gb|---------------------------------------------------|
Db|-9b11~~~~~~~~~----------7-9-9b11-------------------|
Ab|---------------------------------------------------|
Eb|---------------------------------------------------|

Chorus
eb|---------------------------------------------------|
Bb|---------------------------------------------------|
Gb|----7--4-------------------------------------------|
Db|-2--7--4-------------------------------------------|
Ab|-2--5--2--0-2-2b3----------------------------------|
Eb|-0-------------------------------------------------|

Bridge
eb|---------------------------------------------------|
Bb|-5b-5b7rb5h7-5b7----5h7-7b8p5----------------------|
Gb|------------------------------7--7*--5h7p5-7b9-----|
Db|---------------------------------------------------|
Ab|---------------------------------------------------|
Eb|---------------------------------------------------|
                                       *pinch harmonic

eb|-----------------------------------------------------|
Bb|-----7-5---5h7p5-------------5b-5b7------------------|
Gb|-5-7-----7-------7-7~---5h7--------------------------|
Db|-----------------------------------------------------|
Ab|-----------------------------------------------------|
Eb|-----------------------------------------------------|

eb|---------------------------------------------------|
Bb|--5h7p5-5-5b7b5-------------5----------5-7~-5b7----|
Gb|----------------7-5-----5-7---7~-----7-------------|
Db|---------------------------------------------------|
Ab|---------------------------------------------------|
Eb|---------------------------------------------------|

eb|---5-7b9-7-9b11rb9-7-5b7---------------------------|
Bb|-7------------------------7-5~---10---10~---7---7~-|
Gb|-------------------------------0----0-----0---0----|
Db|---------------------------------------------------|
Ab|---------------------------------------------------|
Eb|---------------------------------------------------|

eb|---------------------------------------------------|
Bb|---5---5b7-----7-5~~~~~----------------------------|
Gb|-0---0---------------------------------------------|
Db|---------------------------------------------------|
Ab|---------------------------------------------------|
Eb|---------------------------------------------------|

Verse
eb|---------------------------------------------------|
Bb|---------------------------------------------------|
Gb|-------2-------------------------------------------|
Db|---0-------0---0-----------------------------------|
Ab|-2---2-------2-------------------------------------|
Eb|---------------------------------------------------|

Pre-Chorus
eb|---------------------------------------------------|
Bb|---------------------------------------------------|
Gb|---------------------------------------------------|
Db|-9b11-9~~~~-----4-5b7-4~~~~------------------------|
Ab|---------------------------------------------------|
Eb|---------------------------------------------------|

eb|---------------------------------------------------|
Bb|---------------------------------------------------|
Gb|---------------------------------------------------|
Db|-9b11~~~~~~~~~----------7-9-9b11-------------------|
Ab|---------------------------------------------------|
Eb|---------------------------------------------------|

Chorus
eb|---------------------------------------------------|
Bb|---------------------------------------------------|
Gb|----7--4-------------------------------------------|
Db|-2--7--4-------------------------------------------|
Ab|-2--5--2--0-2-2b3----------------------------------|
Eb|-0-------------------------------------------------|

Second Bridge
eb|---------------------------------------------------|
Bb|-8--8---8--7--8--10--------------------------------|
Gb|-x--x---x--x--x--x---------------------------------|
Db|-5--5---5--4--5--7---------------------------------|
Ab|---------------------------------------------------|
Eb|---------------------------------------------------|

eb|---------------------------------------------------|
Bb|-12-12--12-10-12-13--------------------------------|
Gb|-x--x---x--x--x--x---------------------------------|
Db|-9--9---9--7--9--10--------------------------------|
Ab|---------------------------------------------------|
Eb|---------------------------------------------------|

Chorus
eb|---------------------------------------------------|
Bb|---------------------------------------------------|
Gb|----7--4-------------------------------------------|
Db|-2--7--4-------------------------------------------|
Ab|-2--5--2--0-2-2b3----------------------------------|
Eb|-0-------------------------------------------------|

Outro
eb|---------------------------------------------------|
Bb|---------------------------------------------------|
Gb|-------2-------------------------------------------|
Db|---0-------0---0-----------------------------------|
Ab|-2---2-------2-------------------------------------|
Eb|---------------------------------------------------|

Outro Solo
eb|---------------------------------------------------|
Bb|---------------------------------------------------|
Gb|---------------------------------------------------|
Db|-9~--9h11--11b13~~~~~---9~~~~~~~~------------------|
Ab|---------------------------------------------------|
Eb|---------------------------------------------------|
Suggest correction
What's this?
You can suggest a correction to this tab. Community and Mods will review your correction and vote to approve or reject it.
comments
We did not receive enough feedback on this tab! Please rate:
print report bad tab
1 2 3 4 5
guest
You may want to rate the tab now too:
select rating
Please do not post tabs as comments. Select "correction" instead!