Oops, an error
Loading. Please wait.

Rain When I Die Bass Tab

version 1
version 1

Whole song

Interactive

11,395 views 21 this week
no commentswrite comment
1 2 3 4 5
please rate
add to favorites
launch autoscroll
font size
0
reset
guitar tuner
Autoscroll
slow
fast
+/-
esc
set tempo
stop
Help us to improve Ultimate-Guitar.com Take our survey!
×
Artist: Alice in Chains
Song: Rain When I Die
Album: Dirt (1992)
Bassist: Mike Starr
Tuning: Db-Ab-Db-Gb
Notes:


Intro:
Gb|-----------------------------------------------|
Db|-----------------------------------------------|
Ab|------0---------------------0------------------|
Db|--0h1---1-3-\1-0--0-3\1-0h1---1-3-\1-0--0-3\1--| (x14)


Verse 1:
Gb|-----------------------------------------------|
Db|-----------------------------------------------|
Ab|------0---------------------0------------------|
Db|--0h1---1-3-\1-0--0-3\1-0h1---1-3-\1-0--0-3\1--| (x4)


Pre-Chorus:
Gb|---------|
Db|---------|
Ab|------1--|
Db|--1h3----|


Chorus:
Gb|-----------------------------------------------------------------------|
Db|-----------------------------------------------------------------------|
Ab|--1-1-1-1-1-1-------------------1-1-1-1-1-1-------------------------1--|
Db|--------------3--3-5-5--5--5-5--------------3--3-5-5--5--5-5--0-1h3----|

Gb|--------------------------------------------------------------|
Db|---------------------------------------------------------3----|
Ab|--1-1-1-1-1-1-------------------1-1-1-1-1-1-0-1-1-3--3-5---5--|
Db|--------------3--3-5-5--5--5-5--------------------------------|


Verse 2:
Gb|-----------------------------------------------|
Db|-----------------------------------------------|
Ab|------0---------------------0------------------|
Db|--0h1---1-3-\1-0--0-3\1-0h1---1-3-\1-0--0-3\1--| (x6)


Pre-Chorus:
Gb|---------|
Db|---------|
Ab|------1--|
Db|--1h3----|


Chorus:
Gb|-----------------------------------------------------------------------|
Db|-----------------------------------------------------------------------|
Ab|--1-1-1-1-1-1-------------------1-1-1-1-1-1-------------------------1--|
Db|--------------3--3-5-5--5--5-5--------------3--3-5-5--5--5-5--0-1h3----|

Gb|--------------------------------------------------------------|
Db|---------------------------------------------------------3----|
Ab|--1-1-1-1-1-1-------------------1-1-1-1-1-1-0-1-1-3--3-5---5--|
Db|--------------3--3-5-5--5--5-5--------------------------------|


Verse 3:
Gb|-----------------------------------------------|
Db|-----------------------------------------------|
Ab|------0---------------------0------------------|
Db|--0h1---1-3-\1-0--0-3\1-0h1---1-3-\1-0--0-3\1--| (x2)

Gb|----------------------------------------|
Db|----------------------------------------|
Ab|----------5------------------5----------|
Db|--0-1h3-0----0--0-3--0-1h3-0----0--0-3--| (x6)

Gb|----------------------------------------------|
Db|----------------------------------------------|
Ab|------0---------------------0-----------------|
Db|--3-0---3-0-3\--0--0-3--3-0---3-0-3\--0--0-3--| (x2)

Gb|-----------------------------------------------|
Db|-----------------------------------------------|
Ab|------0---------------------0------------------|
Db|--0h1---1-3-\1-0--0-3\1-0h1---1-3-\1-0--0-3\1--| (x6)


Pre-Chorus:
Gb|---------|
Db|---------|
Ab|------1--|
Db|--1h3----|


Chorus:
Gb|-----------------------------------------------------------------------|
Db|-----------------------------------------------------------------------|
Ab|--1-1-1-1-1-1-------------------1-1-1-1-1-1-------------------------1--|
Db|--------------3--3-5-5--5--5-5--------------3--3-5-5--5--5-5--0-1h3----|

Gb|--------------------------------------------------------------|
Db|---------------------------------------------------------3----|
Ab|--1-1-1-1-1-1-------------------1-1-1-1-1-1-0-1-1-3--3-5---5--|
Db|--------------3--3-5-5--5--5-5--------------------------------|


Outro:
Gb|-----------------------------------------------|
Db|-----------------------------------------------|
Ab|------0---------------------0------------------|
Db|--0h1---1-3-\1-0--0-3\1-0h1---1-3-\1-0--0-3\1--| (x4)

Gb|--------------------------------------|
Db|--------------------------------------|
Ab|--------------------------------------|
Db|--0--0--0h3-0--0h1--0--0--0h3-0--0h1--| (x9)

Gb|--------------------------------|
Db|--------------------------------|
Ab|--------------------------------|
Db|--0--0--0h3-0--0h1--0--0--0/3\--|
Suggest correction
What's this?
You can suggest a correction to this tab. Community and Mods will review your correction and vote to approve or reject it.
comments
We did not receive enough feedback on this tab! Please rate:
print report bad tab
1 2 3 4 5
guest
You may want to rate the tab now too:
select rating
Please do not post tabs as comments. Select "correction" instead!