Oops, an error
Loading. Please wait.

Rain When I Die Bass Tab

version 2
version 2

Whole song

Interactive

6,092 views 18 this week
no commentswrite comment
1 2 3 4 5
excellent!
x 4
add to favorites
launch autoscroll
font size
0
reset
guitar tuner
Tab Pro tools
  • play this tab
  • loop segment
  • change instrument
  • show fretboard
  • metronome
×
Best way to learn
"Rain When I Die"
Autoscroll
slow
fast
+/-
esc
set tempo
stop
Contributor
Rain When I Die - Alice in Chains

Heavy song...tune down 1/2 step all strings except 4th string, which is tuned down 
2 1/2 steps. Enjoy!

email: austinhendrixsg@yahoo.com

h= hammer on
s= slide

Intro
Gb|----------------------------|
Db|----------------------------|
Ab|----------------------------|
Db|-0h3--7--0h3--0--0--3s0-----|x28

Verse
Gb|----------------------------|
Db|----------------------------|
Ab|----------------------------|
Db|-0h3--7--0h3--0--0--3s0-----|

Chorus
"Oh did she call my name..."
Gb|-----------------------------------------------------------------|
Db|-----------------------------------------------------------------|
Ab|-----------------------------------------------------------------|
Db|-0-3h5--0h3s8--8---0--3--5-5---0-3h5--0h3s8--8---0--3--5-5-------|

Gb|---------------------------------------------------------------|
Db|---------------------------------------------------------------|
Ab|---------------------------------------------------------------|
Db|-3h5-3-3-3s8--8---0--3--5-5---0-3h5--0h3s8--8---0--3--5-5------|

Gb|-----------|
Db|-------3-5-|
Ab|--3-5------|
Db|-----------|

Bridge
"She wont let me hide"
Gb|------------------------|
Db|------------------------|
Ab|-------5--5-------------|
Db|-0--3---------0h3s0-----|x8 then back to verse line

Outro
Gb|----------------------------|
Db|----------------------------|
Ab|----------------------------|
Db|-0h3--7--0h3--0--0--3s0-----|

Fairly simple song! Feel free to add in fills here and there to mix it up! AIC rocks! 
Email me for any questions!
-austinhendrixsg
comments
print report bad tab
I want to post or [tab]
guest
You may want to rate the tab now too:
select rating
Please do not post tabs as comments. Select "correction" instead!