Oops, an error
Loading. Please wait.

Rain When I Die Tab

version 2
version 2

Whole song

Interactive

12,330 views 60 this week
2 commentsread comments
1 2 3 4 5
x 5
add to favorites
launch autoscroll
font size
0
reset
how to read this tab
guitar tuner
Autoscroll
slow
fast
+/-
esc
set tempo
stop
Help us to improve Ultimate-Guitar.com Take our survey!
×
Author
Artist: Alice in Chains
Title: Rain When I Die
Album: Dirt

Tuning:Db Ab Db Gb Bb Eb

Tabbed by: Brownbear93  

The opening of this song consists of alot of random noise and whammy
tricks so it may not be 100% but should be a good guide. Please comment 
any corrections/feedback

[Intro]

 G1
e|--------<19>----------------------------------------------------------------|
B|--------<19>----------------------------------------------------------------|
G|--------<19>----------------------------------------------------------------|
D|----------------------------------------------------------------------------|
A|----------------0w---------/5~----5/7-8~---10-12~------14-12/14-15~---------|
E|----------------------------------------------------------------------------|
 |
 |G2 w/wah
e|---------------------------------------------------------------------------|
B|---------------------------------------------------------------------------|
G|-------------------------------------------xxxxxxx--xxxxxxxx--xxx\---------|
D|-------------------------------------------xxxxxxx--xxxxxxxx--xxx\---0www--|
A|-------------------------------------------xxxxxxx--xxxxxxxx--xxx\---0www--|
E|---------------------------------------------------------------------------|

 G1
e|---------------------------------------------------------------------------|
B|---------------------------------------------------------------------------|
G|---------------------------------------------------------------------------|
D|---------------------------------------------------------------------------|
A|-17b-----------------r--15h17p15\12~----10--8-8~---------------------------|
E|---------------------------------------------------------------------------|
 |
 |G2
e|---------------------------------------------------------------------------|
B|---------------------------------------------------------------------------|
G|-17/-------17bwww--/-------------10/12-12bw--wwwwww------------------------|
D|------------------------------------------------------14bwwwwwwww----------|
A|---------------------------------------------------------------------------|
E|---------------------------------------------------------------------------|

 G1                              *pick behind nut
e|----------------------------x----------x----------------------|
B|---------------------------x-x----------x---------------------|
G|----------------0www----------x----------x--------------------|
D|----------------0www------------------------------------------|
A|----------------0www------------------------------------------|
E|--------------------------------------------------------------|
 |
 |G2
e|--------------------------------------------------------------|
B|--------------------------------------------------------------|
G|--------------------------------------------------------------|
D|--------------------------------------------------------------|
A|--------------------------------------------------------------|
E|---12w-----------------12ww-------14w----------10w------------|

 G1
e|------------------------------------------------|
B|------------------------------------------------|
G|------------------------------------------------|
D|------------------------------------------------|
A|------------------------------------------------|
E|---12-10bw-----12-10bw-----12-10bw-----12-10bw--|
 |
 |G2
e|-----------------------------------------------15b--|
B|---15-13-------15-13-------15-13-------15-13--------|
G|----------------------------------------------------|
D|----------------------------------------------------|
A|----------------------------------------------------|
E|----------------------------------------------------|

[Main Riff w/wah]
e|------------------------------------------------|
B|------------------------------------------------|
G|------------------------------------------------|
D|----------3~---------------------3~-------------|
A|--5p3p0-------3h5--------5p3p0-------3h5---3----|
E|--------3---0-----0-3-0--------3---0-----0---0--|(x2)

[Verse]

e|------------------------------------------------|
B|------------------------------------------------|
G|------------------------------------------------|
D|----------3~---------------------3~-------------|
A|--5p3p0-------3h5--------5p3p0-------3h5---3----|
E|--------3---0-----0-3-0--------3---0-----0---0--|(x4)
PM       .   .     .....        .   .     .   .

[Chorus]
e|----------------1---------------1-------------|
B|--------------1---1---------------1-----------|
G|-----------3------------------3-----3---------|
D|-----------3---------3--5-5---3--------3--5-5-|
A|------0h5--1---------3--5-5---1--------3--5-5-|
E|--0h3----------------3--5-5------------3--5-5-|

e|--------------1----------------1-----------------------|
B|------------1---1----------------1---------------------|
G|----------3------------------3-----3--3/5-5---5-5-5-0--|
D|----------3---------3--5-5---3--------3/5-5---5-5-5-0--|
A|-----0h5--1---------3--5-5---1--------1/3-3---3-3-3-0--|
E|--0h3---------------3--5-5-----------------------------|

[Main Riff] x2

[Verse] x4

[Chorus]

[Main Riff] x2

 G1
e|------------------------------------------------------|
B|------------------------------------------------------|
G|------------------------------------------------------|
D|--0-----w--w--w---------------------------------------|
A|--0-----w--w--w---------------------------------------|
E|--0-----w--w--w---------------------------------------|
 |
 |G2
e|------------------------------------------------------|
B|------------------------------------------------------|
G|------------------------------------------------------|
D|------------------------------------------------------|
A|--17brbrbrb-17brbrbrbrp15--17brbrbrb-17brbrbrbrp15----|
E|------------------------------------------------------|

 G1 
e|-------------------------------------------------|
B|-------------------------------------------------|
G|--10-10-10--10-10-12--9-9-9--9-9-10--7-7-7--w----|
D|--10-10-10--10-10-12--9-9-9--9-9-10--7-7-7--w----|
A|-------------------------------------------------|
E|-------------------------------------------------|
 |
 |G2
e|------------------------------------------------|
B|------------------------------------------------|
G|--17------------------17br-16-------16--14~-----|
D|------------------------------------------------|
A|------------------------------------------------|
E|------------------------------------------------|
 |
 |G3
e|---------------------------------------------15br--13h15p13~-|
B|-------------------------------------------------------------|
G|-------------------------------------------------------------|
D|-------------------------------------------------------------|
A|-------------------------------------------------------------|
E|-------------------------------------------------------------|

 G1 
e|-------------------------------------------------|
B|-------------------------------------------------|
G|--10-10-10--10-10-12--9-9-9--9-9-10--7-7-7--w----|
D|--10-10-10--10-10-12--9-9-9--9-9-10--7-7-7--w----|
A|-------------------------------------------------|
E|-------------------------------------------------|
 |
 |G2
e|------------------------------------------------|
B|------------------------------------------------|
G|--17------------------17br-16-------------------|
D|--------------------------------------15--------|
A|------------------------------------------17~---|
E|------------------------------------------------|
 |
 |G3
e|---------------------------------------------------------|
B|-------------------------------------------15b-------15\-|
G|---------------------------------------------------------|
D|---------------------------------------------------------|
A|---------------------------------------------------------|
E|---------------------------------------------------------|

                                            x2
e|--------------------------------------------|-------------|
B|-----------3~--------------------3~---------|-------------|
G|-------2---------------------2--------------|-------------|
D|--3--0---3-----0--0-3---3--0---3----0--0----|-------------|
A|-----------------------------------------3--|-0-----------|
E|--------------------------------------------|-------/10\--|

[Main Riff] x2

[Verse] x4

[Chorus]

[Main Riff] x2

 G1
e|------------------------------------------------|
B|------------------------------------------------|
G|------------------------------------------------|repeat until end
D|------------------------------------------------|
A|------------------------------------------------|
E|---12-10bw-----12-10bw-----12-10bw-----12-10bw--|

 G2                                                                               fade out
e|-------19---------------------------------------------------------------------------------|
B|----------19--15--------------------------------------------------------------------------|
G|------------------------------19b--17h19--------------------------------------------------|
D|-----------------------------------------\7~---------7--9b(9-9-9-9-9-9-9-9)rp7---7/3---b--|
A|------------------------------------------------------------------------------------------|
E|------------------------------------------------------------------------------------------|



************************************

| /   slide up
| \   slide down
| h   hammer-on
| p   pull-off
| ~   vibrato
| w   use bar
| x   Mute note
| b   Bend
| pb  Pre-bend
| br  Bend release
| pbr Pre-bend release
| brb Bend release bend

************************************
Suggest correction
comments
print report bad tab
2 comments total.
0 reply
Mad-Season 78 Jun 29, 2013 01:11 PM

The noise 3 seconds in is an upward pick scrape between the bridge and saddle.

0 reply
ArthurBassFreak 10 Apr 16, 2014 05:19 PM

Great job! Sounds awesome!

guest
You may want to rate the tab now too:
select rating
Wanna post a correction for this tab? Suggest correction