Oops, an error
Loading. Please wait.

Rooster Tab

version 2
version 2

Whole song

Video

57,055 views 21 this week
4 commentsread comments
1 2 3 4 5
x 16
add to favorites
launch autoscroll
font size
0
reset
how to read this tab
guitar tuner
backing track
0:00
0:00
×
Best way to learn
"Rooster"
Autoscroll
slow
fast
+/-
esc
set tempo
stop
Tuning
D# G# C# F# A# D#
Tuned half-step down (Eb Ab Db Gb Bb Eb)

[Intro]
     F# F#  ?  ?    A  A   ?  ?
Eb|--2--2---0--0----5--5---0--0--------------------------------|
Bb|--2--2---0--0----5--5---0--0--------------------------------|
Gb|--3--3---3--3----7--7---7--7--------------------------------|
Db|--4--4---4--4----8--8---8--8------repeat-until-chorus-------|
Ab|--4--4---4--4----8--8---8--8--------------------------------|
Eb|--2--2---2--2----5--5---5--5--------------------------------|

[Chorus]
     B                           A
Eb|--7---------------------------5-----------------------------|
Bb|--7---------------------------5-----------------------------|
Gb|--9---------------------------6-----------------------------|
Db|--9---------------------------7-----------------------------|
Ab|--8---------------------------7-----------------------------|
Eb|--7---------------------------5-----------------------------|
    Here they come to snuff the rooster...

Eb|-0-2-2-0-2---0-2-2-0-2-0-0----------------------------------|
Bb|-0-2-2-0-2---0-2-2-0-2-0-0----------------------------------|
Gb|-3-3-3-3-3---3-3-3-3-3-3-3----------------------------------|
Db|-4-4-4-4-4---4-4-4-4-4-4-4----------------------------------|
Ab|-4-4-4-4-4---4-4-4-4-4-4-4----------------------------------|
Eb|-2-4-4-2-2---2-2-2-2-2-2-2----------------------------------|

     B                  A
Eb|--7------------------5--------------------------------------|
Bb|--7------------------5--------------------------------------|
Gb|--8------------------6--------------------------------------|
Db|--9------------------7--------------------------------------|
Ab|--9------------------7--------------------------------------|
Eb|--7------------------5--------------------------------------|
    Yea, here come the rooster...

(Now is the part when you kick in the distortion when he goes "YEA!" on the last
part of the chorus. It's the same thing as the intro just use strings 6,5, and 4
as power chords instead of playing the whole chord. The only thing that's is
different is the little sound like the chorus part that goes)

(Little sound like the chorus part)
Eb|------------------------------------------------------------|
Bb|------------------------------------------------------------|
Gb|------------------------------------------------------------|
Db|------------------------------------------------------------|
Ab|-2p1h2-5--5-2-5-1------------2p1h2--5--7-2-5-1--------------|
Eb|------------------2p0---2----------------------2-0---2------|


************************************

| b  Bend
| h  Hammer-on
| p  Pull-off

************************************
Suggest correction
comments
print report bad tab
4 comments total. Showing first comments.
+1 reply
dmc_74_usa 80 Nov 02, 2004 07:00 PM

Terrible tab. You got most of the chords wrong and the solo isn't right. Nice attempt, bad outcome.

0 reply
nirvana666 20 Dec 27, 2004 07:00 PM

man i love this song

0 reply
urthunderstruck 20 Jun 02, 2005 08:00 PM

not bad. but your chords arent very accurate

guest
You may want to rate the tab now too:
select rating
Wanna post a correction for this tab? Suggest correction