Oops, an error
Loading. Please wait.

Rooster Bass Tab

version 4
version 4

Interactive

7,467 views 1 this week
no commentswrite comment
1 2 3 4 5
please rate
add to favorites
launch autoscroll
font size
0
reset
guitar tuner
Autoscroll
slow
fast
+/-
esc
set tempo
stop
Help us to improve Ultimate-Guitar.com Take our survey!
×
Author
Difficulty
intermediate
Intro
|------------1h3-1-----------------------|
|-1-3-3----------------------------------| x4
|------------------1-3-8-----------------|
|---------4--------------4-4-4-4-4-4-4-4-|

Verse                                |                   x2|
|------------------------------------|---------------------|
|-1-3-3--------------3---------------|-----3---------------| x2
|----------3-2-1---------------------|---------------------|
|-------4--------4-1---4-4-4-4-4-4-4-|-1-4---4-4-4-4-4-4-4-|

Chorus 1
|------------------------------------------|
|-------3-6---6\-----3-----------3---------|
|-1-3-4------------------------------------|
|----------------1h4---1h4-1h4-1---1-1-111-|

Chorus Riff A    |                              x2|
|----------------|--------------------------------|
|-------3-6---6\-|-1-3-3-----------------3--6--6\-|
|-1-3-4----------|---------3-2-1------------------|
|----------------|-------4-------4-1-1-1----------|

Bridge
|------------------------------|
|-1h3-3-3-----------------3-3--| x3
|-----------3-2-1--------------|
|---------4-------4-1-1-1------|

Chorus 2
|---------------------------------------------------|
|-------3-6---6\-----------3--------------3---------|
|-1-3-4---------------------------------------------|
|----------------1h4-1h4-1---1--1h4-1h4-1---1-1-111-|

Chorus Riff A

Repeat Verse

Chorus 3
|------------------------------------------------------------|
|-------3-6-6-6-6-6-6-6-6-----------3--------------3---------|
|-1-3-4------------------------------------------------------|
|-------------------------1h4-1h4-1---1--1h4-1h4-1---1-1-111-|

|---------------------------------------|
|-------3-6-6-6-6-6-6-6-6-----------3---|
|-1-3-4---------------------------------|
|-------------------------1h4-1h4-1---1-|

|------------------------------|
|-------------3-66-66-66-6666\-|
|---3-2-1----------------------|
|-4-------4-1------------------|

|-----------------------------------|
|---3---------------3-66-66-66-6666-|
|---------3-2-1---------------------|
|-4---1h4-------4-1-----------------|

Outro
|-----------1-3-1-------------------------|
|-1h3-3-3---------1-3-3-------------------|
|-----------------------------------------|
|---------4---------------4-4-4-4-4-4-4-4-|

|-----------1-3-1-------------|
|-1h3-3-3---------1-3-1-------|
|-----------------------------|
|---------4-------------4-----|

Suggest correction
Give kudos to tab author, rate the tab!
1 2 3 4 5
comments
print report bad tab
guest
You may want to rate the tab now too:
select rating
Wanna post a correction for this tab? Suggest correction