Oops, an error
Loading. Please wait.

Rooster Bass Tab

version 5
version 5

Interactive

11,515 views 6 this week
2 commentsread comments
1 2 3 4 5
accurate
x 7
add to favorites
launch autoscroll
font size
0
reset
guitar tuner
Autoscroll
slow
fast
+/-
esc
set tempo
stop
Help us to improve Ultimate-Guitar.com Take our survey!
×
Contributor
Difficulty
Tuning
intermediate
D A D G B E
-----------------------------------------------------------------------------
			     Rooster - Alice in Chains
-----------------------------------------------------------------------------

Tabbed By : Tyler Stieben


Not a hard song once you listen to it
Just listen for the rhythm

Play in the order it appears

Tuning: Drop D



G|-------------------------------------------------------------|
D|--------------------6/8-6------------------------------------|
A|----6-8--8--8-------------6-8--8-----------------------------|
D|----------------6-6-----------------6--6---------------------|6x  Intro


G|---------------------------------------------------------|
D|----------------------------------3----------------------|
A|----6-8--8--8-------3-2-1--------------------------------|
D|----------------6-6---------6-3-3----3--6-6--------------|


G|-----------------------------------------------------------|
D|----------3-----3------------------------------------------|
A|-----------------------------------------------------------|
D|-----1-3-----3-----3--6---6--------------------------------| 2x


G|---------------------------------------------------------|
D|----------------------------------3---------6------------|
A|----6-8--8--8-------3-2-1--------------------------------|
D|----------------6-6---------6-3-3----3--6-6--------------|


G|-----------------------------------------------------------|
D|----------3-----3------------------------------------------|
A|-----------------------------------------------------------|
D|-----1-3-----3-----3--6---6--------------------------------| 2x


G|------------------------------------------------------------------|
D|--------------3-3--6-6-6-6-6-6-6-6--------------------------------|
A|--1-1-3-3-4-4-----------------------------------------------------|
D|------------------------------------1--3--1-3-1-3---1--3--1-3-1-3-|


G|------------------------------------------------------------|
D|--------------3-3--6-6-6-6-6-6-6-6--------------------------|
A|--1-1-3-3-4-4-----------------------------------------------|
D|------------------------------------------------------------|


G|-----------------------------------------------------------|
D|-------3----3-----------------------3---------6------------|
A|----------------------3-2-1--------------------------------|
D|--1-3----3-------6-6---------6-3-3----3--6-6---------------| 6x


G|------------------------------------------------------------------|
D|--------------3-3--6-6-6-6-6-6-6-6--------------------------------|
A|--1-1-3-3-4-4-----------------------------------------------------|
D|------------------------------------1--3--1-3-1-3---1--3--1-3-1-3-|


G|------------------------------------------------------------|
D|--------------3-3--6-6-6-6-6-6-6-6--------------------------|
A|--1-1-3-3-4-4-----------------------------------------------|
D|------------------------------------------------------------|


G|-----------------------------------------------------------|
D|-------3----3-----------------------3---------6------------|
A|----------------------3-2-1--------------------------------|
D|--1-3----3-------6-6---------6-3-3----3--6-6---------------| 2x


G|-----------------------------------------------------------|
D|-------3----3-----------------------3----------------------|
A|----------------------3-2-1--------------------------------|
D|--1-3----3-------6-6---------6-3-3----3--6-6---------------|


G|-----------------------------------------------------------|
D|----------3-----3--------6-----6---------------------------|
A|-----------------------------------------------------------|
D|-----1-3-----3-----3--6-----6------------------------------|2x


G|-----------------------------------------------------------|
D|-------3----3-----------------------3----------------------|
A|----------------------3-2-1--------------------------------|
D|--1-3----3-------6-6---------6-3-3----3--6-6---------------|


G|-----------------------------------------------------------|
D|----------3-----3--------6-----6---------------------------|
A|-----------------------------------------------------------|
D|-----1-3-----3-----3--6-----6------------------------------|2x


G|------------------------------------------------------------------|
D|--------------3-3--6-6-6-6-6-6-6-6--------------------------------|
A|--1-1-3-3-4-4-----------------------------------------------------|
D|------------------------------------1--3--1-3-1-3---1--3--1-3-1-3-|


G|------------------------------------------------------------|
D|--------------3-3--6-6-6-6-6-6-6-6--------------------------|
A|--1-1-3-3-4-4-----------------------------------------------|
D|------------------------------------------------------------|


G|-----------------------------------------------------------|
D|-------3----3-----------------------3---------6------------|
A|----------------------3-2-1--------------------------------|
D|--1-3----3-------6-6---------6-3-3----3--6-6---------------| 2x


G|-------------------------------------------------------------|
D|--------------------6/8-6------------------------------------|
A|----6-8--8--8-------------6-8--8-----------------------------|
D|----------------6-6-----------------6--6---------------------| 4x



Leave comments !  Tell me if you see a mistake
Suggest correction new What's this?
You can suggest a correction to this tab. Community and Mods will review your correction and vote to approve or reject it.
comments
print report bad tab
2 comments total.
+1 reply
NightFire99 98 wrote on May 11 2011, 01:26 am

This version is played this way because rooster is played down half a step. So if you play this version with the song it sounds the same. But the half step down version is played different .

0 reply
BassNTuba 85 wrote on September 1 2013, 12:06 am

Best sounding and easiest to follow version.

guest
You may want to rate the tab now too:
select rating
Please do not post tabs as comments. Select "correction" instead!