Oops, an error
Loading. Please wait.

Rooster Bass Tab

version 6
version 6
1,394 views 9 this week
1 commentread comment
1 2 3 4 5
x 3
add to favorites
launch autoscroll
font size
0
reset
guitar tuner
Autoscroll
slow
fast
+/-
esc
set tempo
stop
Help us to improve Ultimate-Guitar.com Take our survey!
×
Author
Difficulty
Tuning
novice
D# G# C# F# A# D#
Rooster - Alice in Chains
        
Intro                                             (4x)
Gb|------------|---2h4--2-----|-----------|-------------|
Db|*--2-4--4---|-----------2--|-4---4--4--|------------*|
Ab|*-----------|-0------------|-----------|-0--0--00-0-*|
Eb|------------|--------------|-----------|-------------|

Verse           
Gb|------------|-----------|------------|------------|
Db|*--2-4--4---|-----------|-----4------|------------|
Ab|*-----------|-0--4-3-2--|-0----------|-0-0---0----|
Eb|------------|-----------|---2--------|------------|
                
Gb|------------|-----------|------------|------------|
Db|----4-------|-----------|----4-------|-----------*|
Ab|------------|-0---------|------------|-0----0-0--*|
Eb|--2---------|---------0-|-2----------|------------|
                
Chorus
Gb|-------------|-----------|------------|-----------------|-------------|-----------|
Db|----------4--|-7------7--|--------4---|--------4--------|----------4--|-7------7--|
Ab|-2--4--5-----|-----------|------------|-----------------|-2--4--5-----|-----------|
Eb|-------------|-----------|-0h2-2------|-0h2-020--22-222-|-------------|-----------|
                
Gb|-------------|------------|---------------|---------------|
Db|*---4---4----|------------|-----4-----444-|----7--7-77-7-*|
Ab|*------------|-0--4--3-2--|-0-------------|-0------------*|
Eb|-022------2--|------------|---2-----2-----|---------------|

Interlude (play verse line 1 , 4x)
Chorus (double-time)
Verse
Chorus (double-time)
Outro (play intro)
Suggest correction
Give kudos to tab author, rate the tab!
1 2 3 4 5
comments
print report bad tab
1 comment total.
-1 reply
piratelooksat30 10 Jul 09, 2014 09:06 PM

Clearly wrong.

guest
You may want to rate the tab now too:
select rating
Wanna post a correction for this tab? Suggest correction