Oops, an error
Loading. Please wait.

Rotten Apple Bass Tab

version 1
version 1

Whole song

Interactive

35,551 views 75 this week
1 commentread comment
1 2 3 4 5
x 18
add to favorites
launch autoscroll
font size
0
reset
guitar tuner
Autoscroll
slow
fast
+/-
esc
set tempo
stop
Help us to improve Ultimate-Guitar.com Take our survey!
×
Tuning
D# G# C# F# A# D#
Tune Bass Down # step (low to high: Eb Ab Db Gb)


[Intro]

Slow Rock
Tempo:72

                                                             (x10)
F#|---------4--------2------------|--------4-----2--4-0-------0h2|
C#|0--2--2-----2--0--0------------|0h2--2----2p0-0------0-2h4----|
G#|-------------------------------|------------------------------|
D#|-------------------------------|------------------------------|


[Verse 1]

        Hey ah na na...                                       (x6)
F#|---------4--------2------------|--------4-----2--4-0-------0h2|
C#|0--2--2-----2--0--0------------|0h2--2----2p0-0------0-2h4----|
G#|-------------------------------|------------------------------|
D#|-------------------------------|------------------------------|


[Verse 2,3,4]

        Hey ah na na...                                       (x4)
F#|---------4--------2------------|--------4-----2--4-0-------0h2|
C#|0--2--2-----2--0--0------------|0h2--2----2p0-0------0-2h4----|
G#|-------------------------------|------------------------------|
D#|-------------------------------|------------------------------|


[Chorus]

        Yeah...
F#|--------9--9p7---------7-------|------------------------------|
C#|---------------9--7h9----------|10--10-10-10--10\9---7---5----|
G#|7--(7)-------------------------|------------------------------|
D#|-------------------------------|------------------------------|

F#|-------------------------------|------------------------------|
C#|-------------------------------|-------(10)-10-10-10\---------|
G#|7--------7-------------3----5-7|---------------------5-5-5-6-7|
D#|---0--0-----0--0--(0)----(7)---|8--8-8------------------------|

F#|--------------9p7--------7h9---|------------------------------|
C#|------------------9--7h9-------|10--10-10-10-x-9-9/12---------|
G#|-------7--7-7------------------|------------------------------|
D#|0--0-0-------------------------|------------------------------|
                                   (2nd time) To Coda I
                                   (3rd time) To Coda II

F#|-------------------------------|--------------9p7----------7h9|
C#|13--14--14---------------------|-------------------9--7h9-----|
G#|-------------------------------|------7--7-7------------------|
D#|-------------------------------|0--0--------------------------|

F#|-------------------------------|---------4--------2-----------|
C#|10-10--10-10--10\9--7--5-5-5---|0--2--2-----2--0--0-----------|
G#|-------------------------------|------------------------------|
D#|-------------------------------|------------------------------|


      (Last time)                 [Coda 1]
F#|--------4------2--4-0-------0h2|------------------------------|
C#|0h2--2-----2p0-0------0-2h4----|10-10--10-10--10\9--7--5-5-5--|
G#|-------------------------------|------------------------------|
D#|-------------------------------|------------------------------|


[Guitar Solo]

F#|-----4------2------------------|-------4-----2-2-4-0-------0h2|
C#|0h2-----(0)-0-----0---0--------|0h2--2---2-0-0-------0-2h4----|
G#|-------------------------------|------------------------------|
D#|-------------------------------|------------------------------|

F#|--------4--------2-------------|------4-----2--4-0------0h2---|
C#|0h2--2-----2--0--0-------------|0h2-2---2-0-0-------2h4-------|
G#|-------------------------------|------------------------------|
D#|-------------------------------|------------------------------|


[Interlude]

   let ring--| let ring-----------|        let ring--------------|
F#|------9-----11/14--------------|------9-----11/12-------------|
C#|---9-----9---------12----(12)\-|---9-----9--------12--12----12|
G#|7------------------------------|7------------------------12---|
D#|-------------------------------|------------------------------|

          let ring-----------------------------------------------|
F#|------9----11/12---------------|------9-----11/12-------------|
C#|---9-----9-------12---(12)\----|---9-----9---------12---------|
G#|7------------------------------|7-----------------------------|
D#|-------------------------------|------------------------------|

F#|---------14\12--12\------------|------------------------------|
C#|12/14--(14)\12--12\------------|------------------------------|
G#|-------------------------------|------------------------------|
D#|-------------------------------|------------------------------|


[Coda 2]

F#|-------------------------------|------------------------------|
C#|-------------------------------|------------------------------|
G#|-------------------------------|------------------------------|
D#|-------------------------------|------------------------------|

F#|-------------------------------|------4-----2-----------------|
C#|10-10--10-10--10\9--7--5-5-5---|0-2-2---2-0-0-----------------|
G#|-------------------------------|------------------------------|
D#|-------------------------------|------------------------------|


[Outro]

                                        Hey ah na na...
F#|--------4------2--4-0-------0h2|---------4--------2-----------|
C#|0h2--2-----2p0-0------0-2h4----|0--2--2-----2--0--0-----------|
G#|-------------------------------|------------------------------|
D#|-------------------------------|------------------------------|
                                                             (x12)

F#|--------4-------2--------------|4--0----------0h2-------------|
C#|0h2--2-----2p0--0--------------|------0--2h4------------------|
G#|-------------------------------|------------------------------|
D#|-------------------------------|------------------------------|



************************************

| h    Hammer-on
| p    Pull-off
| \    Slide down
| (n)  Ghost note
| x    Dead note
| /    Slide up

************************************
Suggest correction
comments
print report bad tab
1 comment total.
+1 reply
bamboy1104 10 Jan 17, 2010 09:08 PM

wow man.. i dnt usually comment, but this tab is amazing

guest
You may want to rate the tab now too:
select rating
Wanna post a correction for this tab? Suggest correction