Oops, an error
Loading. Please wait.

Rotten Apple Tab

version 2
version 2

Whole song

Interactive

18,029 views 1 this week
5 commentsread comments
1 2 3 4 5
x 8
add to favorites
launch autoscroll
font size
0
reset
how to read this tab
guitar tuner
Autoscroll
slow
fast
+/-
esc
set tempo
stop
Help us to improve Ultimate-Guitar.com Take our survey!
×
Difficulty
novice
This one's in C# tuning. I don't know the solos or even the chorus completely, but all 
rest of the tabs were kind of "meh", so here's the basics that sound relatively decent 
the track...

c# ---------------------------------------------------------|
g# ---------------------------------------------------------|
e  ---------------------------------------------------------|
b  ---------------2--------------------2--------------------|
f# -------4-------2-----------4--------2----4p2-0-------0h2-|
c# 0h2-2-----2p0--0----0h2-2-----2p0---0-----------2h4------|

Repeat that for the intro and verses


c# --------------------------|
g# --------------------------|
e  --------------------------|
b  -44-444-4444--22-22244-44-|
f# -44-444-4444--00-00022-22-|
c# -22-222-2222--------------|

Repeat 5x per chorus


c# -----------------|-------------------------|
g# -----------------|-------------------------|
e  ----------1h2----|----------1h2------------|   A
b  ---2h4-2-------2-|---2h4-2-------2---2---2-|
f# -----------------|---------------------2---|
c# 2----------------|2------------------------|


c# -----------------|-----------------------------|
g# -----------------|-----------------------------|
e  ----------1h2----|----------1h2----------44-22-|   B
b  ---2h4-2-------2-|---2h4-2-------2-----2-22-22-|
f# -----------------|-----------------------------|
c# 2----------------|2----------------------------|


This is the part around the middle right after the guitar solo when the background tune 
a bit. The order of it is ABAB, then, thats about it.

Have Fun! :)
Suggest correction
comments
print report bad tab
5 comments total. Showing first comments.
0 reply
oasisfan1 41 Jan 06, 2007 10:00 PM

wrong

0 reply
Repitition 10 Sep 13, 2007 03:53 AM

^Yes, yes it is.

0 reply
bal90s 10 Jan 12, 2008 04:49 PM

i think the same

guest
You may want to rate the tab now too:
select rating
Wanna post a correction for this tab? Suggest correction