Oops, an error
Loading. Please wait.

Rotten Apple Tab

version 4
version 4

Whole song

Interactive

21,717 views 99 this week
1 commentread comment
1 2 3 4 5
x 8
add to favorites
launch autoscroll
font size
0
reset
how to read this tab
guitar tuner
Autoscroll
slow
fast
+/-
esc
set tempo
stop
Help us to improve Ultimate-Guitar.com Take our survey!
×
Author
Difficulty
Tuning
intermediate
D# G# C# F# A# D#
Rotten Apple
Alice in Chains


Tabbed by Brownbear93

Tuning is a half step down

There's several guitar tracks on this one giving it that huge sound. 
I tried to combine a couple of tracks here and there just to simplify it.

Guitar 1 and 3:w/ talkbox
Guitar 2: clean electric 
Guitar 4: Acoustic


[Intro Solo:] (played with a talkbox but a wah works perfectly fine)
   G1(2 guitars for 1)
D#|---------------------------------------------------------------------------------|
A#|---------------------------------15---------15b-15b-15b-----r-12h15p12---12------|
F#|--------------12-----------------14b-----------------------------------14---14b--|
C#|--------12h14---14-----------12--------------------------------------------------|
G#|--12h14----------------12h14-----------------------------------------------------|
D#|---------------------------------------------------------------------------------|
|
  |G2 
D#|---------------------------------------------------------------------------|
A#|---------------------------------------------------------------------------|
F#|--------------------------------------------------14b----------------------|
C#|----------------14b--------------------------------------------------------|
G#|---------------------------------------------------------------------------|
D#|---------------------------------------------------------------------------|

   G1
D#|-------------------------15b-r-14~-----------------------------------------|
A#|-------------------12-13-----------13-12~-12h13-15-15b----r-12~------------|
F#|----12h14p12~---------------------------------------------------12/14\12~--|
C#|---------------------------------------------------------------------------|
G#|---------------------------------------------------------------------------|
D#|---------------------------------------------------------------------------|
|
  |G2
D#|---------------------------------------------------------------------------|
A#|-----------15b-------------------------------------------------------------|
F#|---------------------------------------------------------------------------|
C#|---------------------------------------------------------------------------|
G#|---------------------------------------------------------------------------|
D#|---------------------------------------------------------------------------|

   G1
D#|----------------------------------------------------------0----------------|
A#|------------------------------------------------------------3-0------------|
F#|---11h12p11\9~--7h9--9-9-9--9~----------------------------------2b---r-0-0-|
C#|---------------------------------------------------------------------------|
G#|---------------------------------------------------------------------------|
D#|---------------------------------------------------------------------------|

   G1
D#|---------------------------------------------|
A#|--3br---------3br--------3br-----------------|
F#|------0h2-0-------0h2-0-------0-2~-----------|
C#|---------------------------------------------|
G#|---------------------------------------------|
D#|---------------------------------------------|
|
  |G3
D#|------------------------------------10b--r---|
A#|---------------8/10~------8/10~--------------|
F#|--------------------9-7~-------9-7~----------|
C#|---------------------------------------------|
G#|---------------------------------------------|
D#|---------------------------------------------|

   G2 and G4
D#|----------0------------------0------------------0------------------0--------|
A#|--------0---0--------------0---0--------------0---0--------------0---0------|
F#|-----16-------16--------16-------16--------16-------16--------16-------16---|
C#|--14-------------0---14-------------0---14-------------0---14-------------0-|
G#|----------------------------------------------------------------------------|
D#|----------------------------------------------------------------------------|
|
  |G3
D#|----------------------------------------------------------------------------|
A#|--8/10~---------------8/10~-------------------------------------------------|
F#|---------9-7~----------------9-7~-------------------------------------------|
C#|---------------------------------------7b------------r----------------------|
G#|----------------------------------------------------------------------------|
D#|----------------------------------------------------------------------------|

  [1st Verse:] G2 and G4
D#|--------3-2------------3-2-3p2---0h2-------|
A#|--------3-3------------3-3-----3-----3-----|
F#|--------0-2------------0-2-------------2---|x4
C#|-----2----0----------2---0-----------------|
G#|---2---------------2-----------------------|
D#|-0---------------0-------------------------|
Hey Ah Na Na     Innocence is over  
Hey Ah Na Na     Over
Hey Ah Na Na     Ignorance is spoken 
Hey Ah Na Na     Spoken

D#|-----0-0----------------0--------------------2-----------0---------|
A#|---------0------------0---0----------------0---0-----------0-------|
F#|-------------------16-------16-----------0--------------------0----|
C#|---0-------------14-----------0------------------0------------0----|
G#|-------------------------------------------------------------------|
D#|-0------------------------------------0----------------0-----------|
Hey Ah Na Na  Confidence is broken   Hey Ah Na Na     Broken  

D#|--------3-2------------3-2-3p2---0h2-------|
A#|--------3-3------------3-3-----3-----3-----|
F#|--------0-2------------0-2-------------2---|x3
C#|-----2----0----------2---0-----------------|
G#|---2---------------2-----------------------|
D#|-0---------------0-------------------------|
Hey Ah Na Na     Sustenance is stolen 
Hey Ah Na Na     Stolen 
Hey Ah Na Na     Arrogance is potent 

D#|-------3-2-------------3-2-2--0----0-2-3-3---|
A#|-------3-3-------------3-3-3--3----3-3-3-3---|
F#|-------0-2-------------0-2-2--2----2-2-2-2---|
C#|-----2---0-----------2---0-0--0----0-0-0-0---|
G#|---2---------------2-------0--0----0-0-0-0---|
D#|-0---------------0---------------------------|
Hey Ah Na Na     Potent       


  [Chorus:] G2 and G4
D#|-3-----3---3-3-3---------------------------------------------|
A#|-3-----3---3-3-3-0-0---0-0-0-0-3--3-3-3---3-3-x-3--3--3-3-3--|
F#|-0---0-0---0-0-0-0-1---1-1-1-1-3--3-3-3---3-3-x-3--3--3-3-3-0|
C#|-2---2-2---2-2-2-0-2---2-2-2-2-2--2-2-2---2-2-x-2--2--2-2-2-0|
G#|-2---2-2---2-2-2-0-2---2-2-2-2-3--3-3-3---3-3-x-3--3--3-3-3-0|
D#|-x---x-0---x-x-x---0---0-0-0-0-x--x-x-x---x-x---x--x--x-x-x--|
Yeah                            What I     see      is 

D#|-3-----3---3-3-3---------------0--0-0-0---0-0--0-0-0-------0-|
A#|-3-----3---3-3-3-0-0---0-0-0-0-3--3-3-3---3-3--3-3-3/5-5-5-5-|
F#|-0---0-0---0-0-0-0-1---1-1-1-1-0--0-0-0---0-0--0-0-----------|
C#|-2---2-2---2-2-2-0-2---2-2-2-2-2--2-2-2---2-2--2-2-----------|
G#|-2---2-2---2-2-2-0-2---2-2-2-2-3--3-3-3---3-3--3-3-----------|
D#|-x---x-0---x-x-x---0---0-0-0-0-------------------------------|
unreal                        I've   written my   own 

D#|-3-----3---3-3-3---------------------------------------------|
A#|-3-----3---3-3-3-0-0---0-0-0-0-3--3-3-3---3-3-x-3--3--3-3-3--|
F#|-0---0-0---0-0-0-0-1---1-1-1-1-3--3-3-3---3-3-x-3--3--3-3-3-0|
C#|-2---2-2---2-2-2-0-2---2-2-2-2-2--2-2-2---2-2-x-2--2--2-2-2-0|
G#|-2---2-2---2-2-2-0-2---2-2-2-2-3--3-3-3---3-3-x-3--3--3-3-3-0|
D#|-x---x-0---x-x-x---0---0-0-0-0-x--x-x-x---x-x---x--x--x-x-x--|
part                            Eat  of   the    apple   so 

D#|-3-----3---3-3-3---------------0--0-0---0--0-0--0-0-----2----|
A#|-3-----3---3-3-3-0-0---0-0-0-0-3--3-3---3--3-3--3-3--0--3----|
F#|-0---0-0---0-0-0-0-1---1-1-1-1-0--0-0---0--0-0--0-0--0--2----|
C#|-2---2-2---2-2-2-0-2---2-2-2-2-2--2-2---2--2-2--2-2--2--0----|
G#|-2---2-2---2-2-2-0-2---2-2-2-2-3--3-3---3--3-3--3-3--2-------|
D#|-x---x-0---x-x-x---0---0-0-0-0-------------------------------|
young                         I'm crawling   back  to    start

   G1
D#|-----------------------------------------------------------------------|
A#|------------------------------------------------------3br--------------|
F#|-----------------------------2br---------------------------------------|
C#|--------------------------------------2~--2~--0------------------------|
G#|-----------------------------------------------------------------------|
D#|-----------------------------------------------------------------------|
|
  |G2
D#|--------0---------------0------------------0------------------0--------|
A#|------0---0-----------0---0--------------0---0--------------0---0------|
F#|----0--------------16-------16--------16-------16--------16-------16---|
C#|------------0---14-------------0---14-------------0---14-------------0-|
G#|--0--------------------------------------------------------------------|
D#|-----------------------------------------------------------------------|
|
  |G4
D#|------------------------0------------------0------------------0--------|
A#|----------------------0---0--------------0---0--------------0---0------|
F#|-------------------4---------4---------4-------4----------4-------4----|
C#|-----------------2-------------0-----2-----------0------2-----------0--|
G#|-----------------------------------------------------------------------|
D#|-----------------------------------------------------------------------|


 [2nd Verse:] G2 and G4
D#|--------3-2------------3-2-3p2---0h2-------|
A#|--------3-3------------3-3-----3-----3-----|
F#|--------0-2------------0-2-------------2---|x3
C#|-----2----0----------2---0-----------------|
G#|---2---------------2-----------------------|
D#|-0---------------0-------------------------|
Hey Ah Na Na     I repent tomorrow 
Hey Ah Na Na     Tomorrow 
Hey Ah Na Na     I suspend my sorrow 

D#|-------3-2-------------3-2-2--0----0-2-3-3---|
A#|-------3-3-------------3-3-3--3----3-3-3-3---|
F#|-------0-2-------------0-2-2--2----2-2-2-2---|
C#|-----2---0-----------2---0-0--0----0-0-0-0---|
G#|---2---------------2-------0--0----0-0-0-0---|
D#|-0---------------0---------------------------|
Hey Ah Na Na     Sorrow


  [Chorus:] G2 and G4
D#|-3-----3---3-3-3---------------------------------------------|
A#|-3-----3---3-3-3-0-0---0-0-0-0-3--3-3-3---3-3-x-3--3--3-3-3--|
F#|-0---0-0---0-0-0-0-1---1-1-1-1-3--3-3-3---3-3-x-3--3--3-3-3-0|
C#|-2---2-2---2-2-2-0-2---2-2-2-2-2--2-2-2---2-2-x-2--2--2-2-2-0|
G#|-2---2-2---2-2-2-0-2---2-2-2-2-3--3-3-3---3-3-x-3--3--3-3-3-0|
D#|-x---x-0---x-x-x---0---0-0-0-0-x--x-x-x---x-x---x--x--x-x-x--|
Yeah                            What I     see      is 

D#|-3-----3---3-3-3---------------0--0-0-0---0-0--0-0-0-------0-|
A#|-3-----3---3-3-3-0-0---0-0-0-0-3--3-3-3---3-3--3-3-3/5-5-5-5-|
F#|-0---0-0---0-0-0-0-1---1-1-1-1-0--0-0-0---0-0--0-0-----------|
C#|-2---2-2---2-2-2-0-2---2-2-2-2-2--2-2-2---2-2--2-2-----------|
G#|-2---2-2---2-2-2-0-2---2-2-2-2-3--3-3-3---3-3--3-3-----------|
D#|-x---x-0---x-x-x---0---0-0-0-0-------------------------------|
unreal                        I've   written my   own 

D#|-3-----3---3-3-3---------------------------------------------|
A#|-3-----3---3-3-3-0-0---0-0-0-0-3--3-3-3---3-3-x-3--3--3-3-3--|
F#|-0---0-0---0-0-0-0-1---1-1-1-1-3--3-3-3---3-3-x-3--3--3-3-3-0|
C#|-2---2-2---2-2-2-0-2---2-2-2-2-2--2-2-2---2-2-x-2--2--2-2-2-0|
G#|-2---2-2---2-2-2-0-2---2-2-2-2-3--3-3-3---3-3-x-3--3--3-3-3-0|
D#|-x---x-0---x-x-x---0---0-0-0-0-x--x-x-x---x-x---x--x--x-x-x--|
part                            Eat  of   the    apple   so 

D#|-3-----3---3-3-3---------------0--0-0---0--0-0--0-0-----2----|
A#|-3-----3---3-3-3-0-0---0-0-0-0-3--3-3---3--3-3--3-3--0--3----|
F#|-0---0-0---0-0-0-0-1---1-1-1-1-0--0-0---0--0-0--0-0--0--2----|
C#|-2---2-2---2-2-2-0-2---2-2-2-2-2--2-2---2--2-2--2-2--2--0----|
G#|-2---2-2---2-2-2-0-2---2-2-2-2-3--3-3---3--3-3--3-3--2-------|
D#|-x---x-0---x-x-x---0---0-0-0-0-------------------------------|
young                         I'm crawling   back  to    start

   G1
D#|---------------------------------------------------------------------------|
A#|--5br--0h3-5b-----0h3-5b---0h3-5b------------------------------------------|
F#|------------------------------------2b----r-0h2--p0------------------------|
C#|---------------------------------------------------------------------------|
G#|---------------------------------------------------------------------------|
D#|---------------------------------------------------------------------------|

   G2 and G4  (G1 comes in after 2nd time)
D#|------<7>------------------------------|
A#|--<7>--------<7>-----------------------|
F#|---------<7>--------<5>----------------|x4
C#|----------------<7>-------<5>----------|
G#|-----------------------<7>-------<5>---|
D#|------------------------------<7>------|

  3rd Verse: G2 and G4
D#|--------3-2------------3-2-3p2---0h2-------|
A#|--------3-3------------3-3-----3-----3-----|
F#|--------0-2------------0-2-------------2---|x3
C#|-----2----0----------2---0-----------------|
G#|---2---------------2-----------------------|
D#|-0---------------0-------------------------|
Hey Ah Na Na      A romance is fallen 
Hey Ah Na Na      Fallen 
Hey Ah Na Na      Recommend you borrow 

D#|-------3-2-------------3-2-2--0----0-2-3-3---|
A#|-------3-3-------------3-3-3--3----3-3-3-3---|
F#|-------0-2-------------0-2-2--2----2-2-2-2---|
C#|-----2---0-----------2---0-0--0----0-0-0-0---|
G#|---2---------------2-------0--0----0-0-0-0---|
D#|-0---------------0---------------------------|
Hey Ah Na Na     Borrow


  [Chorus:] G2 and G4
D#|-3-----3---3-3-3---------------------------------------------|
A#|-3-----3---3-3-3-0-0---0-0-0-0-3--3-3-3---3-3-x-3--3--3-3-3--|
F#|-0---0-0---0-0-0-0-1---1-1-1-1-3--3-3-3---3-3-x-3--3--3-3-3-0|
C#|-2---2-2---2-2-2-0-2---2-2-2-2-2--2-2-2---2-2-x-2--2--2-2-2-0|
G#|-2---2-2---2-2-2-0-2---2-2-2-2-3--3-3-3---3-3-x-3--3--3-3-3-0|
D#|-x---x-0---x-x-x---0---0-0-0-0-x--x-x-x---x-x---x--x--x-x-x--|
Yeah                            What I     see      is 

D#|-3-----3---3-3-3---------------0--0-0-0---0-0--0-0-0-------0-|
A#|-3-----3---3-3-3-0-0---0-0-0-0-3--3-3-3---3-3--3-3-3/5-5-5-5-|
F#|-0---0-0---0-0-0-0-1---1-1-1-1-0--0-0-0---0-0--0-0-----------|
C#|-2---2-2---2-2-2-0-2---2-2-2-2-2--2-2-2---2-2--2-2-----------|
G#|-2---2-2---2-2-2-0-2---2-2-2-2-3--3-3-3---3-3--3-3-----------|
D#|-x---x-0---x-x-x---0---0-0-0-0-------------------------------|
unreal                        I've   written my   own 

D#|-3-----3---3-3-3---------------------------------------------|
A#|-3-----3---3-3-3-0-0---0-0-0-0-3--3-3-3---3-3-x-3--3--3-3-3--|
F#|-0---0-0---0-0-0-0-1---1-1-1-1-3--3-3-3---3-3-x-3--3--3-3-3-0|
C#|-2---2-2---2-2-2-0-2---2-2-2-2-2--2-2-2---2-2-x-2--2--2-2-2-0|
G#|-2---2-2---2-2-2-0-2---2-2-2-2-3--3-3-3---3-3-x-3--3--3-3-3-0|
D#|-x---x-0---x-x-x---0---0-0-0-0-x--x-x-x---x-x---x--x--x-x-x--|
part                            Eat  of   the    apple   so 

D#|-3-----3---3-3-3---------------0--0-0---0--0-0--0-0-----2----|
A#|-3-----3---3-3-3-0-0---0-0-0-0-3--3-3---3--3-3--3-3--0--3----|
F#|-0---0-0---0-0-0-0-1---1-1-1-1-0--0-0---0--0-0--0-0--0--2----|
C#|-2---2-2---2-2-2-0-2---2-2-2-2-2--2-2---2--2-2--2-2--2--0----|
G#|-2---2-2---2-2-2-0-2---2-2-2-2-3--3-3---3--3-3--3-3--2-------|
D#|-x---x-0---x-x-x---0---0-0-0-0-------------------------------|
young                         I'm crawling   back  to    start

   G2
D#|-------------0------------------0------------------0--------|
A#|-----------0---0--------------0---0--------------0---0------|
F#|--------16-------16--------16-------16--------16-------16---|
C#|-----14-------------0---14-------------0---14-------------0-|
G#|------------------------------------------------------------|
D#|------------------------------------------------------------|
|
  |G4
D#|-------------0------------------0------------------0--------|
A#|-----------0---0--------------0---0--------------0---0------|
F#|--------4---------4---------4-------4----------4-------4----|
C#|------2-------------0-----2-----------0------2-----------0--|
G#|------------------------------------------------------------|
D#|------------------------------------------------------------|


  [Backing for Solo:] G1
D#|-----------------------------|
A#|-----------------------------|
F#|----2br--------0-------------|
C#|-----------------------2~----|
G#|-----------------------------|
D#|-----------------------------|

  [Solo:] G2 w/wah
D#|----------------------------------------------------------------------------------|
A#|--15b-15p12-15p12----12-----------------------------------------------------------|
F#|------------------14----14-12----12-14brp12----12---------------------------------|
C#|------------------------------14------------14----14-12h14p12----12---------------|
G#|--------------------------------------------------------------14----14-14/12-10-12|
D#|----------------------------------------------------------------------------------|

D#|-------------------------------------------------------15------15b-15-12----12----|
A#|-------------------------------------------------12-15-------------------15----15b|
F#|------------------------------------------12-14b----------------------------------|
C#|---------------------------------12h14p12-----------------------------------------|
G#|-12brp10---10---------10h12-12/14-------------------------------------------------|
D#|--------12---12--10h12------------------------------------------------------------|

D#|--12------------------------------------------------------------------------------|
A#|-----15-12---------------------------10-------------------------------------------|
F#|-----------14brp12----14----12~---------9\7---7-----------------------------------|
C#|-------------------14----14-----------------9---9-8-7-7p5-7p5---5br---------------|
G#|--------------------------------------------------------------7-----7-5---5/7-10--|
D#|------------------------------------------------------------------------7---------|

D#|--------------------------------------------------15b--15p12---12------------15b--|
A#|-----------------------------15-----------------------------15----15br------------|
F#|-----7/9-----------12h14-14b---14brp12---12---------------------------------------|
C#|-7h9---------12h14---------------------14--14/------------------------------------|
G#|----------------------------------------------------------------------------------|
D#|----------------------------------------------------------------------------------|

D#|-15p12----12-----------12-15p12----12-12h15p12----12h15p12----12h15p12----12h15p12|
A#|-------15----15br---15----------15-------------15----------15----------15---------|
F#|----------------------------------------------------------------------------------|
C#|----------------------------------------------------------------------------------|
G#|----------------------------------------------------------------------------------|
D#|----------------------------------------------------------------------------------|

D#|----12h15p12----12h15p12----12h15p12-15b-----15-----------------------------------|
A#|-15----------15----------15--------------------15-15------------------------------|
F#|--------------------------------------------------14brp12----12b------------------|
C#|----------------------------------------------------------14----14-12----12-------|
G#|----------------------------------------------------------------------14----14-13-|
D#|----------------------------------------------------------------------------------|

D#|-------------------------------------------------------------12-------------------|
A#|----------------------------------------------------------12----15b------15b-15-12|
F#|------------------------12~------------------12-14-12-14b-------------------------|
C#|---------------------12-12~---------12h14p12--------------------------------------|
G#|-12-10-12brp10---10-----------12h14-----------------------------------------------|
D#|--------------12------------------------------------------------------------------|

D#|-------15b-------15b----12--------------------------------------------------------|
A#|---------------------15----15-12----12--------------------15brp12----12-----------|
F#|-14-12---------------------------14----14brp12-------12-----------14----14-12-14br|
C#|-----------------------------------------------14-14------------------------------|
G#|----------------------------------------------------------------------------------|
D#|----------------------------------------------------------------------------------|

D#|-----15br-15b--r-15-12-15-12-15-12----12-12h15p12----12h15p12----12h15p12----12h15|
A#|-----------------------------------15-------------15----------15----------15------|
F#|p12-------------------------------------------------------------------------------|
C#|----------------------------------------------------------------------------------|
G#|----------------------------------------------------------------------------------|
D#|----------------------------------------------------------------------------------|

D#|p12----12h15p12----12h15p12-----------------0-------------------------------------|
A#|----15----------15----------15~---15----------3-----------------------------------|
F#|----------------------------------14b-----------2brp0-----0---------------7-------|
C#|------------------------------------------------------0h2-------------5-5-6-------|
G#|------------------------------------------------------------------5h7-----7-------|
D#|------------------------------------------------------------3b-0------------------|

D#|-----------------------------------------------------------------------------|
A#|--8----------------8-------------------8--------------8---8--------------8---|
F#|----7-----------7----7--------------7--7-7----------7-7-----7----------7-7---| Fade Out
C#|------6-------6--------6----------6-6------6------6-----------6------6-------|
G#|--------7--/7------------7--5/7-7------------7--7---------------7--7---------|
D#|-----------------------------------------------------------------------------|


************************************

| /   slide up
| \   slide down
| h   hammer-on
| p   pull-off
| ~   vibrato
| x   Mute note
| b   Bend
| pb  Pre-bend
| br  Bend release
| pbr Pre-bend release
| brb Bend release bend
| <>  Natural Harmonic

************************************
Suggest correction
comments
print report bad tab
1 comment total.
0 reply
caiozet 40 Dec 11, 2015 01:09 PM

This is perfect, thank you.

guest
You may want to rate the tab now too:
select rating
Wanna post a correction for this tab? Suggest correction