Oops, an error
Loading. Please wait.

Sap Tab

version 2
version 2

Album

3,460 views 1 this week
2 commentsread comments
1 2 3 4 5
please rate
add to favorites
launch autoscroll
font size
0
reset
how to read this tab
guitar tuner
Autoscroll
slow
fast
+/-
esc
set tempo
stop
Help us to improve Ultimate-Guitar.com Take our survey!
×
Author
Band- Alice In Chains
Album- Sap

1.BROTHER

INTRO + VERSE - play this several times

       A
e    --0----0---0--0--0---0---0--0--0----0---0---0--0--0-0--0--0--|
B    --2----2---2--2--2---2---2--2--2----2---2---2--2--3s5--3--2--|
G    --2----2---2--2--2---2---2--2--2----2---2---2--2--0-0--0--2--|
D    --2----2---2--2--2---2---2--2--2----2---2---2--2--3s5--3--2--|
A    --0----0---0--0--0---0---0--0--0----0---0---0--0--0-0--0--0--|
E    -------------------------------------------------------------|

Jerry plays the following riff 3 times during the song but with different endings.

e    -------------------------|----------------|---------------------|
B    -------------------------|--5b6r5---------|---------------------|
G    -------------------------|---------6b7r6--|---------------------|
D    ----------------------5--|----------------|---------------------|
A    ----------3---5---7------|----------------|----------3---5---7--|
E    --3---5------------------|----------------|--3---5--------------|
		Mm....					   Mm....

e    ------------------------|-------------------------|----------------|
B    --5b6r5---------8b10r8--|-------------------------|--5b6r5---------|
G    ---------6b7r6----------|-------------------------|---------6b7r6--|
D    ------------------------|----------------------5--|----------------|
A    ------------------------|----------3---5---7------|----------------|
E    ------------------------|--3---5------------------|----------------|
					 Mm....

Ending 1 - in the intro
					 A
e    -------------------------|--0-0--0--0--|
B    -------------------------|--3s5--3--2--|
G    -------------------------|--0-0--0--2--|
D    ----------------------5--|--3s5--3--2--|
A    ----------3---5---7------|--0-0--0--0--|
E    --3---5------------------|-------------|
		Mm....

Ending 2 - after the first chorus play.
This is the same as the 3rd and 4th bars above.

Ending 3 - at the end of the song.
Jerry plays the first 2 bars in the riff and ends with this.

e    -------------------------|------------------------------|
B    -------------------------|--pb5b6r5-----------pb8b10r8--|
G    -------------------------|-----------pb6b7r6------------|
D    ----------------------5--|------------------------------|
A    ----------3---5---7------|------------------------------|
E    --3---5------------------|------------------------------|
		Mm....


CHORUS
Here are the chords to the chorus, so just listen for the changes.

       F  	  A7
e    --1--	--0--	--0--|
B    --1--	--2--	--3--|
G    --2--	--0--	--0--|
D    --3--	--2--	--2--|
A    --3--	--0--	--0--|
E    --1--	-----	-----|
     You were always so far away...

       F  	  G
E    --1--	--3--|
B    --1--	--3--|
G    --2--	--4--|
D    --3--	--5--|
A    --3--	--5--|
E    --1--	--3--|
     I know that pain, so don't you runaway, like you used to do.


SOLO

e    -------------------------------|----------------------5-----5--|
B    -------------------------------|-------------------5-----5-----|
G    ----------------5--7--pb7b8r7--|--5-----5v-----5b--------------|
D    --5h7--7v--5h7-----------------|-----7------7------------------|
A    -------------------------------|-------------------------------|
E    -------------------------------|-------------------------------|

e    --------------------------|--------------------------------------|
B    --5--8b10--8v--7--5--7b8--|--5-----------------------------------|
G    --------------------------|-----7--5--pb7b8r7--5-----------------|
D    --------------------------|-----------------------7--5--7--------|
A    --------------------------|--------------------------------5--3--|
E    --------------------------|--------------------------------------|

e    -----------------------------------------------|--------------------|
B    -----------------------------------------------|--------------------|
G    -----------------------------------5--pb7b8r7--|--7v--5--7p6p5--5v--|
D    -----------------------------5--7--------------|--------------------|
A    --5--3b5r3-----------3--5h7--------------------|--------------------|
E    ------------5--3--5----------------------------|--------------------|

e    ---------------------------------------|----------------5--|
B    --7b8--7b8----------7b8--7b8-----------|----------------5--|
G    --7b8--7b8--7p5-----7b8--7b8--7p5------|-------------5-----|
D    -----------------7-----------------7v--|--5h7v--5h7--------|
A    ---------------------------------------|-------------------|
E    ---------------------------------------|-------------------|

e    --8b10---8-5-------------|---------------------------------------------|
B    ----|----------8b10--8v--|--7--5--7b8--5-------------------------------|
G    --hold bend--------------|----------------7--5--pb7b8r7--5-------------|
D    -------------------------|----------------------------------7--5--5h7--|
A    -------------------------|---------------------------------------------|
E    -------------------------|---------------------------------------------|

2.GOT ME WRONG

INTRO + VERSE

       G#	   E	       F#
e    --4--4--------0--0--0--0--2--------|
B    --4--4--x--x--0--0--0--0--2--x--x--|
G    --5--5--x--x--1--1--1--1--3--x--x--|
D    --6--6--x--x--2--2--2--2--4--x--x--|
A    --6--6--x--x--2--2--2--2--4--x--x--|
E    --4--4--------0--0--0--0--2--------|

Riff 1 - this is the fast bit which Scott plays in the intro

e    ----------|----------------------------|------------|
B    ----------|----------------------------|--4-4-------|
G    ----------|------4-6b-4-6-4------------|--4-4---6v--|
D    ----4-6v--|--4h6------------6-4---4-6--|------6-----|
A    --6-------|---------------------6------|------------|
E    ----------|----------------------------|------------|

e    --------------------|
B    --------------------|
G    --4-----------------|
D    ----6-4-------------|
A    --------6-4b-2---2--|
E    ---------------4----|

PRE-CHORUS

       D     F     C#    A
e    --------1--1--------5--5-|
B    --7--7--1--1--6--6--5--5-|
G    --7--7--2--2--6--6--6--6-|
D    --7--7--3--3--6--6--7--7-|
A    --5--5--3--3--4--4--7--7-|
E    --5--5--1--1--4--4--5--5-|
       As of now I bet you've got me wrong.
       So unsure we reach for something_

CHORUS

       E	  F#    A
e    --0--0--0-0--2--2--5--5--5--5--5--5--5--5--5--5--5--|
B    --0--0--0-0--2--2--5--5--5--5--5--5--5--5--5--5--5--|
G    --1--1--1-1--3--3--6--6--6--6--6--6--6--6--6--6--6--|
D    --2--2--2-2--4--4--7--7--7--7--7--7--7--7--7--7--7--|
A    --2--2--2-2--4--4--7--7--7--7--7--7--7--7--7--7--7--|
E    --0--0--0-0--2--2--5--5--5--5--5--5--5--5--5--5--5--|
       strong.
       I haven't felt like this in so long...

       F#			     A
e    --2--2--2--2--2--2--2--2--2--|--5--5--5--5-5-5-5-5-5-5-5--5--|
B    --2--2--2--2--2--2--2--2--2--|--5--5--5--5-5-5-5-5-5-5-5--5--|
G    --3--3--3--3--3--3--3--3--3--|--6--6--6--6-6-6-6-6-6-6-6--6--|
D    --4--4--4--4--4--4--4--4--4--|--7--7--7--7-7-7-7-7-7-7-7--7--|
A    --4--4--4--4--4--4--4--4--4--|--7--7--7--7-7-7-7-7-7-7-7--7--|
E    --2--2--2--2--2--2--2--2--2--|--5--5--5--5-5-5-5-5-5-5-5--5--|
       That don't last forever...

3.RIGHT TURN

Intro
-----

Chord Progression

G  G  G G  G  G G  G  G G G G  G  G G
E  E  E E  E  E E  E  E E E E  E  E E

Note: Continue chord progression until Pre-Chorus

Fill 1 - to be played along with intro

-------|----------------------|----------------|-----------------------------|
----3--|----------------------|----------------|-----------------------------|
-------|--7h9--------7h9p7----|----------------|-----------------------------|
-------|----------------------|------------5h7-|-5--7^(1/2)----5^(1/2)-------|
-------|----------------------|----------------|------------------------7--7-|
-------|----------------------|----------------|-----------------------------|

-----------------------------------|
-----------------------------------|
-----------------------------------|
-----------------------------------|
-5h7p5--------5--------------------|    End with beginning of main verse
-----------------------------------|


Main Verses
-----------

Play intro Chord Progression


Pre-Chorus
----------

Chord Progression


F  F  F F F  F F F F
E  E E E  E E E E E  E E
F  F  F F F  F F F F              Note carefully the strumming patterns
E  E E E  E E E E E  E E
F  F  F F F  F F F
E  E
G G G  G G  G G G G  G G G  G G G
A  A A  (Break to Chorus)

Chorus
------

Chord Progression

E  E  E E  E E E E  E E E  E E  D  A  A  A
Asus4 Asus4 A  A A A A A A  A A G

Repeat Chord Progression one more time


Pre-Chorus (second time)
----------

Fill 2 - Underlying solo

------|-------------------------|-------8--10-10^(1)r8----------|------------|
------|--------------8--10--10--|--/10-----------------10-8-----|---9--------|
---4--|--5-4-5-7-7/9------------|----------------------------9--|------------|
------|-------------------------|-------------------------------|------------|
------|-------------------------|-------------------------------|------------|
------|-------------------------|-------------------------------|------------|

-------------------|---------------------------|-----------------------------|
---10--10--10------|---------------------------|-----------------------------|
---10--10--10----9-|-------12-14--12-----------|----12-12-14-14--------------|
---10--10--10------|--/14----------------------|----------------14-12--------|
-------------------|---------------------------|-----------------------14----|
-------------------|---------------------------|-----------------------------|

4.AM I INSIDE

Intro
-----


Riff 1

------------------------------------------|
----------3-------3-----------3-------3---|
----0---------0---------0---------0-------|
------2-----2---2---------2-----2---2-----|
------------------------------------------|
--0------------------0--------------------|


Repeat until verse section

Verse
-----


Repeat Riff 1 twice, then play Riff 2 once

Riff 2


--------------------------------------|
--------------------------------------|
---------0---0----0---0---0---0---0---|
-----6---------6--------6-------6-----|
-------6------------------------------|
--4--------4--------4-------4---------|

Now repeat Riff 1 three times, then play Riff 3


--------------------------------------|
--------------------------------------|
--------------------------------------|
----6---5----4-6-4----4-6-4----4-6-4--|
------6-------------------------------|
-4--------4--------0--------0---------|


Now play Riff 1 one time and enter Pre-Chorus




Pre-Chorus
----------

Chord Progression


B Bsus4 B B B A A A  A A A A A  F# F#

F# F# F# F  F F F F F F F F F F F F

Note: On second time through, play Fill 1 along with Chord Progression

Fill 1
------


-------------------------------------|---------------------------------------|
--------3--------3--------3-------3--|-------3-------3--------3-------3------|
----1-------1---------1-------1------|---1-------1--------1-------1----------|
------2---2---2---------2---2---2----|-----2---2---2--------2---2---2--------|
-------------------------------------|---------------------------------------|
-0-----------------0-----------------|-0---------------0---------------------|


Fill 2
------


Note:  Play after second time through Pre-Chorus.
       This leads into the Chorus and becomes the Chorus


                                                       ~~~~
-0--0-0-0------0------|-2-2-2-2---2-2-----0--0-0-0---------|-0-0-0-0---------|
-0--0-0-3------3------|-3-3-3-3---3-3-----2--2-2-2---------|-0-0-0-3---------|
-2--1-1-1------1------|-2-2-2-2---2-2-----2--2-2-2---------|-2-1-1-1---------|
-2--2-2-2----2-2-0-0--|-0-0-0-0---0-0-0-0-2--2-2-2---------|-2-2-2-2---------|
-2--2-2-2----2-2-0-0--|-0-0-0-0---0-0-0-0-0--0-0-0---------|-2-2-2-2---------|
-0--0-0-0----0-0------|-----------------------------0--3---|-0-0-0-0---------|


---0-----------------|
---3-----------------|
---1-----------------|
-2-2-0-0-------------|
-2-2-0-0-------------|
-0-0-----------------|

5.UNTITLED

Don't Know
Suggest correction
What's this?
You can suggest a correction to this tab. Community and Mods will review your correction and vote to approve or reject it.
comments
We did not receive enough feedback on this tab! Please rate:
print report bad tab
1 2 3 4 5
2 comments total.
0 reply
2jpe2 283 wrote on June 9 2011, 08:27 pm

The last song is called "Love Song" I'll post the tabs for the main part as soon as I can

0 reply
2jpe2 283 wrote on June 12 2011, 11:20 am

Love song:
e|----5-5-------7-7---------5-5---------7--|
B|----6-6-------8-8---------6-6---------8--|
G|-2--7-7----2--9-9----2----7-7----2----9--|
D|-3-------6-3-------6-3---0-----6-3---0---|
A|-5---------5---------5-----------5-------|
E|-----------------------------------------|
It's in 3/4 time and it's awkward on guitar
because it was written for piano

guest
You may want to rate the tab now too:
select rating
Please do not post tabs as comments. Select "correction" instead!