Oops, an error
Loading. Please wait.

Shame In You Bass Tab

version 1
version 1

Whole song

Interactive

1,458 views 3 this week
1 commentread comment
1 2 3 4 5
please rate
add to favorites
launch autoscroll
font size
0
reset
guitar tuner
Autoscroll
slow
fast
+/-
esc
set tempo
stop
Help us to improve Ultimate-Guitar.com Take our survey!
×
Author
Difficulty
Tuning
jjhand 10,507
intermediate
C# G# C# F# A# D#
Alice in Chains - "Shame in You"
From the Album 'Alice in Chains (tripod dog cover, 1995)'
Bass Tuning: Db Ab Db Gb
Tabbed by jjhand 

This song might be played in Mike Inez's 5 string but I wrote it for 4 stringers. 
Have fun & rate or comment.


Main Riff - from beginning, play 3x
Gb|-------------|------------|------------|-------------|
Db|-------------|------------|------------|-------------|
Ab|-5-----------|-4----------|-3----------|-0-----------|
Db|-------------|------------|------------|-------------|

"When I waken, and I'm achin', time for sleepin', yeah 
 When I'm sayin' time to go and, I've been hurtin', yeah"
 When I'm layin, I'm still tryin', concentratin' on dyin, yeah"




Prechorus - 
Gb|-------------|----------------|--------------|---------------|
Db|-------------|----------------|--------------|---------------|
Ab|-5-----------|-9-----9----9---|-8------------|-0-----0---0---|
Db|-------------|----------------|--------------|---------------|

|-------------|----------------|--------------|-----------------|
|-------------|----------------|--------------|-----------------|
|-5----5--5---|-9-----9----9---|-8----8----8\-|-0-0-0-0-0---0---|
|-------------|----------------|--------------|-----------------|

|-----------------------|
|-----------------------|
|-0-0-0-0-0-0-0~--------|
|-----------------------|



Chorus (1:25)
Gb|-------------|---------------|--------------|------------------|
Db|-------------|---------------|--------------|------------------|
Ab|-------------|---------------|--------------|-0-----0----0h2-2-|
Db|-0----0---0--|-3------3------|-2----2----2--|------------------|

|-------------|---------------|--------------|-------------------|
|-------------|---------------|--------------|-------------------|
|-------------|---------------|--------------|-0-0-0-0-0---0-----|
|-0----0---0--|-3------3------|-2----2----2--|-------------------|

|--------------------|------------------|------------------|
|--------------------|------------------|------------------|
|-0-0-0-0-0-0-0------|-0-------0--------|-0-------0--------|
|--------------------|------------------|------------------|



Play Main Riff Again 2x


Play Prechorus again at 2:30


Play Chorus Again at 3:01



Bridge (3:31) - listen for rhythm
|-------------|-------------|-------------|------------------------------|
|-------------|-------------|-------------|------------------------------|
|-------------|-------------|-------------|---------5------5------5--5-5-|
|-0----0--0-0-|-3----3--3-3-|-5----5--5-5-|-0-0-0-0----0-0----0-0--------|

|-------------|-------------|-------------|----------------------|
|-------------|-------------|-------------|----------------------|
|-------------|-------------|-------------|-0-0-0-0-0-0-0--------|
|-0----0--0-0-|-3----3--3-3-|-5----5--5-5-|----------------------|

|---------------------|--------------------|-------------------|
|---------------------|--------------------|-------------------|
|-0-0-0-0-0-0-0-------|-0------0-0-0-------|-0-------0---------|
|---------------------|--------------------|-------------------|



Final Riff (starting at 4:08) - repeat until ending
Gb|----------------------------|
Db|----------------------------|
Ab|----------------------------|
Db|-7-7-7-7-7-7-7\------2------|


(4:31) Slight Riff change
|---------------------------|
|---------------------------|
|------------------/7---7-7-|
|-7-7-7-7-7-7-7\------------|


For ending 12 bars-

Play Final Riff 3x, then play Riff change above, then repeat

End on Ab



KEY
************************************

| /   slide up
| \   slide down
| h   hammer-on
| p   pull-off
| ~   vibrato
Suggest correction new What's this?
You can suggest a correction to this tab. Community and Mods will review your correction and vote to approve or reject it.
comments
We did not receive enough feedback on this tab! Please rate:
print report bad tab
1 2 3 4 5
1 comment total.
0 reply
guy7bmwm5 1,371 wrote on January 6 2011, 08:56 pm

I like your tab. I'd like to make a suggestion. I think the 8's should be 9's and the 7's should be 8's in the prechorus.

guest
You may want to rate the tab now too:
select rating
Please do not post tabs as comments. Select "correction" instead!