Oops, an error
Loading. Please wait.

Sickman Bass Tab

version 1
version 1

Whole song

Interactive

1,414 views 1 this week
no commentswrite comment
1 2 3 4 5
3 more votes to show rating
add to favorites
launch autoscroll
font size
0
reset
guitar tuner
Autoscroll
slow
fast
+/-
esc
set tempo
stop
Help us to improve Ultimate-Guitar.com Take our survey!
×
Author
tuning 1/2 step down 
11 is first fret not eleventh
h is hammer on

:09 x8
|--------------------------|
|--------------------------|
|-------333-----3-----3----|
|--2222-----222---222---2--|

:26
|-------------------------------888-----77----5--|
|--------------------------7777-----555----33----|
|-------11------11----1--------------------------|
|--0000----0000----00----------------------------|

:31
|------------------------------------------------|
|------------------------------------------------|
|-------333-----3-----3-----6--0/6--0/6--0/6--6--|
|--2222-----222---222---2------------------------|

:40
|-------------------------------------------------------|
|-----------5h7------------------------5h7--------------|
|--0--0-6-5------0--0-5--3----0--0-6-5------0--0-3-3----|
|----------------------------------------------------5--|

:51
|---------------------------------------------------------------|
|-------------5h7------------------------5h7--------------------|
|--3--0---6-5------0--0-5--3----0--0-6-5------0--0-3-3----------|
|------------------------------------------------------5-5-3-0--|

1:03 
|-------------------------------------------------------------------|
|-------------------------------------------------------------------|
|-------------------------------------------------------------------|
|--6--6-5--5--3-3-5-3~-0--0-0--6--6-5--5--3-3-5-3~-0--0-0--6--5--3--|

1:25 x8
|--------------------------|
|--------------------------|
|-------333-----3-----3----|
|--2222-----222---222---2--|

1:42
|-------------------------------888-----77----5--|
|--------------------------7777-----555----33----|
|-------11------11----1--------------------------|
|--0000----0000----00----------------------------|

1:47 
|-----------------------------------------------------------------------|
|-----------------------------------------------------------------------|
|-------333-----3-----3---------333-----3-----3----6--0/6--0/6--0/6--6--|
|--2222-----222---222---2--2222-----222---222---2-----------------------|

1:57
|-------------------------------------------------------|
|-----------5h7------------------------5h7--------------|
|--0--0-6-5------0--0-5--3----0--0-6-5------0--0-3-3----|
|----------------------------------------------------5--|

2:07
|---------------------------------------------------------------|
|-------------5h7------------------------5h7--------------------|
|--3--0---6-5------0--0-5--3----0--0-6-5------0--0-3-3----------|
|------------------------------------------------------5-5-3-0--|

2:18
|-------------------------------------------------------------------|
|-------------------------------------------------------------------|
|-------------------------------------------------------------------|
|--6--6-5--5--3-3-5-3~-0--0-0--6--6-5--5--3-3-5-3~-0--0-0--6--5--3--|

2:48 x4
|----------------------------------------|
|----------------------------------------|
|--2-2----------------2-2----------------|
|------0-0--3--32--2------3-3--3--32--2--|

3:23 x2
|------------------------------------------------|
|------------------------------------------------|
|--2-2-----------------2-2-2---------------------|
|------5-5--4--4-3-3-3-------5-5-5--4-4-4-2-0-0--|

3:43
|-----|
|-----|
|-----|
|--4--|

3:48 x8
|--------------------------|
|--------------------------|
|-------333-----3-----3----|
|--2222-----222---222---2--|

4:06
|-------------------------------888-----77----5--|
|--------------------------7777-----555----33----|
|-------11------11----1--------------------------|
|--0000----0000----00----------------------------|

4:10 
|-----------------------------------------------------------------------|
|-----------------------------------------------------------------------|
|-------333-----3-----3---------333-----3-----3----6--0/6--0/6--0/6--6--|
|--2222-----222---222---2--2222-----222---222---2-----------------------|

4:20
|-------------------------------------------------------|
|-----------5h7------------------------5h7--------------|
|--0--0-6-5------0--0-5--3----0--0-6-5------0--0-3-3----|
|----------------------------------------------------5--|

4:30
|---------------------------------------------------------------|
|-------------5h7------------------------5h7--------------------|
|--3--0---6-5------0--0-5--3----0--0-6-5------0--0-3-3----------|
|------------------------------------------------------5-5-3-0--|

4:42 x8
|------------------------------|
|------------------------------|
|------------------------------|
|--6--6-5--5--3-3-5-3~-0--0-0--|

|-----------|
|-----------|
|-----------|
|--6--5--3--|
Suggest correction
Give kudos to tab author, rate the tab!
1 2 3 4 5
comments
print report bad tab
guest
You may want to rate the tab now too:
select rating
Wanna post a correction for this tab? Suggest correction