Oops, an error
Loading. Please wait.

Sludge Factory Bass Tab

version 1
version 1

Whole song

Interactive

7,018 views 6 this week
no commentswrite comment
1 2 3 4 5
accurate
x 5
add to favorites
launch autoscroll
font size
0
reset
guitar tuner
Autoscroll
slow
fast
+/-
esc
set tempo
stop
Help us to improve Ultimate-Guitar.com Take our survey!
×
Author
Difficulty
novice
This songs drop d, down half a step, also it is unbelievable how easy it is.

Intro:

G  |--------------------------------------------------|x4
D  |--------------------------------------------------|
A  |--------------------------------------------------|
E  |--1--3--0--------------------1--3--0--------------|
            let it ring........        let it ring....
Ohhhhhhhhhhhhhhhhhhh, o yehhhhhhh etc.

Verse:

G  |--------------------------------|x8
D  |--------------------------------|
A  |--------------------------------|
E  |--1--3--0-----------------------|
            let it ring.........

Chorus

G  |--2-3-5-8-------------------|
D  |----------7-6-5~------------|
A  |----------------------------|
E  |----------------------3-4-5-|
       	

Solo

G  |--------------------------------|
D  |--------------------------------|
A  |--------------------------------|
E  |--1--3--0-----------------------|
            let it ring.........

End
Suggest correction
comments
print report bad tab
guest
You may want to rate the tab now too:
select rating
Wanna post a correction for this tab? Suggest correction