Oops, an error
Loading. Please wait.

Swing On This Bass Tab

version 2
version 2

Whole song

Interactive

1,524 views 18 this week
2 commentsread comments
1 2 3 4 5
excellent!
x 4
add to favorites
launch autoscroll
font size
0
reset
guitar tuner
Tab Pro tools
  • play this tab
  • loop segment
  • change instrument
  • show fretboard
  • metronome
×
Best way to learn
"Swing On This"
Autoscroll
slow
fast
+/-
esc
set tempo
stop
Contributor
Difficulty
Artist: Alice In Chains
Song: Swing On This
Album: Jar Of Flies
Tuning: Standard


Verse:
g| -------------------------------------4----------------------------|
d| 6-4------------------------------6-46-----------------------------|
a| ----5-4-2---------2-4-5-4-2------------5-4-2--------2-4-4b-2------|    repeat 3x
e| ----------402-3-4-----------42-3-------------42-3-4----------42-3-|

Chorus:
g| -----------|
d| -----------|  repeat 4x
a| -----------|
e| 778b-775---|

verse 2x
chorus 8x
verse 2x
chorus 8x
verse 2x
comments
print report bad tab
2 comments total.
+1 reply
MasterFailure wrote on May 19 2014, 12:46 am

The song must be played in 1/2 step down.

And for chorus, I think it's something like that:

Gb|--------------|
Db|--------10b---|
Ab|---9-10-------|
Eb|-7------------|

0 reply
Tanner Streeter wrote on February 27 2015, 09:51 pm

You're totally right, thanks for the correction.

I want to post or [tab]
guest
You may want to rate the tab now too:
select rating
Please do not post tabs as comments. Select "correction" instead!