Oops, an error
Loading. Please wait.

Take Her Out Bass Tab

version 1
version 1

Whole song

Interactive

643 views 1 this week
1 commentread comment
1 2 3 4 5
please rate
add to favorites
launch autoscroll
font size
0
reset
guitar tuner
Autoscroll
slow
fast
+/-
esc
set tempo
stop
Help us to improve Ultimate-Guitar.com Take our survey!
×
Author
tuning 1/2 step down

intro/verse
|---------------------------------------|
|---------------------------------------|
|------------------------------------12-|
|-0-0---0-0-0---0-0-0---0-0-0---0/14----|

|---------------------------------|
|---------------------------------|
|---------------------------------|
|-0-0---0-0-0---0-0-0---0-0-0/5/0-|


chorus
|----------------------------------------------------------------|
|-2-2-2----------------------------------------------------------|
|-------3-3-3-3-0-0-0-0-0-0-0-0-0-------3-3-3-3-0-0-0-0-0--------|
|---------------------------------3-3-3-------------------0-5-3--|

|--------------------------------------------------------|
|-2-2-2--------------------------------------------------|
|-------3-3-3-3-0-0-0-0-0-0-0-0-0-------3-3---------5/12-|
|---------------------------------3-3-3-----3-3-3-3------|


outro
|---------------------------------|
|-------------------------------7-|
|-----------------------------9---|
|-0-0---0-0-0---0-0-0---0-0-0-----|
Suggest correction
Give kudos to tab author, rate the tab!
1 2 3 4 5
comments
print report bad tab
1 comment total.
0 reply
OKBoomer 10 wrote on March 18 2011, 04:18 pm

Not terrible, but clearly missing several parts where Mike
climbs to the 12th,15th and 17th frets.

guest
You may want to rate the tab now too:
select rating
Please do not post tabs as comments. Select "correction" instead!