Oops, an error
Loading. Please wait.

The Devil Put Dinosaurs Here Tab

version 1
version 1

Whole song

Interactive

9,867 views 24 this week
1 commentread comment
1 2 3 4 5
accurate
x 8
add to favorites
launch autoscroll
font size
0
reset
how to read this tab
guitar tuner
Autoscroll
slow
fast
+/-
esc
set tempo
stop
Help us to improve Ultimate-Guitar.com Take our survey!
×
Author
The Devil Put Dinosaurs Here

Alice in Chains

Tabbed by:Brownbear93

Half step down


Intro/Verse:                    weird backround guitar:
|------------1--0---1----------|-------------------------------|
|---------3-------3---3--------|-------------------------------|
|------1-----------------------|-------------------------------|
|---2--------------------------|-----2~--------/3--------------|
|------------------------------|-------------------------------|
|------------------------------|-------------------------------|


This is just another way to play the verses that's a bit easier
|----------------0----------------|
|-------------6------6------------|
|----------7-------7---7----------|
|-------6-------------------------|
|----7----------------------------|
|---------------------------------|


Pre Chorus:

G1: x3                     end on:
|-------------------------|--------|
|-------------------------|--------|
|-------------------------|--------|
|---4-------2-------------|---4----|
|---4-------2-------------|---4----|
|---2-------0----/6b------|---2----|

G2:
|------------------------------------------------------------------------------------------|
|------------------------------------------------------------------------------------------|
|--------------------2b-(2)r-3~---3b'r---------------------------------2b-(2)r-3~---3b'r---|
|---4~----4h5p4\2~----------------------2---4-4/5~-----4~----4h5p4\2~----------------------|
|------------------------------------------------------------------------------------------|
|------------------------------------------------------------------------------------------|

|---------------------------|
|---------------------------|
|---------------------------|
|--2----/4-5-----/10-9------|
|---------------------------|
|--0----/2-3------/8-7------|


Chorus:
G1:
|---------------------------------------------------------------------------------|
|---------------------------------------------------------------------------------|
|---------------------------------------------------------------------------------|
|--9\7---7\5--/10-9----9\7---7\5--/10-9----9\7---/12-10---10-9---9\7---7\5---2----|
|--9\7---7\5--/10-9----9\7---7\5--/10-9----9\7---/12-10---10-9---9\7---7\5---2----|
|--7\5---5\3---/8-7----7\5---5\3---/8-7----7\5---/10--8----8-7---9\5---5\3---0----|

G2: 
|---------------------------------|
|-------------10------------------|
|-------11-12----12----12-11--[9]-|x4
|---/9---------------9------------|
|---------------------------------| 9th fret is played last time only
|---------------------------------|


|----------------------------------------------|
|--/12-----\8-----/15-----\12-----/19~---------|
|----------------------------------------------|
|----------------------------------------------|
|----------------------------------------------|
|----------------------------------------------|


Verse/Pre Chorus/Chorus


2nd Chorus ending:
G1:                             G2:
|------------------------------|---------------------------------------------|
|--------3-------3-------------|---------------------------------------------|
|------------------------------|--/11-12-14-12---12-12b--12----9b--9---------|
|-----5-------5------0---2-----|---------------------------------------------|
|--3---------------0-----2-----|---------------------------------------------|
|----------3-------------0-----|---------------------------------------------|


G1:
|---------------------------------------0----|
|-----------------3-------3----3-------------|
|--------------------------------------------|played throughout the solo
|--------------5-------5--------------2------|
|---/7-6-5--3---------------5-------2--------|
|-------------------3-------------0----------|

Solo:
|--------------------------------------------------------------------------------------------|
|---------------------------------------------------------------------------7b-(7)r--5h7-5~--|
|----5-------4-4-5/7-5-4~------5-------4-4-4/5-4~-----5-------4-4-5/7-5-4~-------------------|
|------5-5-7---------------------5-5-7------------------5-5-7--------------------------------|
|--------------------------------------------------------------------------------------------|
|--------------------------------------------------------------------------------------------|

|---------------15---14b-14-12h14-12---12---12--12---14b-(14)r-12h14-12-----------|
|--/12-12-12-12------------------------15b--15b-15b----------------------12-------|
|----------------------------------------------------------------------------12---|
|---------------------------------------------------------------------------------|
|---------------------------------------------------------------------------------|
|---------------------------------------------------------------------------------|

Pre Chorus/Chorus


3rd Chorus ending:

G1: x8                     G2: 
|-----------------------|---------------------------|
|-----------------------|---------7b-r--------------|
|-----5-----------------|---------------------------|
|-----5---5---2---4-----|---------4b-r--------------|
|-----3---5---2---4-----|---------------------------|
|---------3---0---2-----|---------------------------|

Outro:
|----------------------------------------------|
|----------------------------------------------|
|--------0--------------------0----------0-----|
|-----5---------0---------------4----------4---|
|--3---------5-------0-----4----------4--------|
|---------3-------0-----2----------2-----------|


************************************
| /   slide up
| \   slide down
| h   hammer-on
| p   pull-off
| ~   vibrato
| +   harmonic
| x   Mute note
| b   Bend
| pb  Pre-bend
| br  Bend release
| pbr Pre-bend release
| brb Bend release bend
| ()  strike note while bent
| b`  slight bend (about a quarter step)

************************************
Suggest correction
comments
print report bad tab
1 comment total.
+2 reply
Absolute Rock-O 376 wrote on March 12 2014, 02:37 pm

I can propose you another way to play the intro

|--------------0---------------------|
|-----------------0------------------|
|-----------10-------10--------------|
|--------12-------------12-----------|
|-----11-----------------------------|
|--0---------------------------------|

The rest of the tab sounds right! Good job.

guest
You may want to rate the tab now too:
select rating
Please do not post tabs as comments. Select "correction" instead!