Oops, an error
Loading. Please wait.

Them Bones Tab

version 1
version 1

Whole song

77,528 views 24 this week
5 commentsread comments
1 2 3 4 5
x 12
add to favorites
launch autoscroll
font size
0
reset
how to read this tab
guitar tuner
backing track
0:00
0:00
×
Best way to learn
"Them Bones"
Autoscroll
slow
fast
+/-
esc
set tempo
stop
Tuning: Down a half step, dropped D tuning (Db Ab Db Gb Bb Eb)

Riff A
Riff B 8 times
Chorus
Riff A 2 times
Chorus
Riff A
Riff B 8 times
Chorus 3 times

[Riff A]
   D5      Eb5     E5    F5D5    D5      Eb5     E5    F5D5   
e|-----------------------------|-----------------------------|
B|10v*-------------------------|10v--------------------------|
G|10v--------------------------|10v--------------------------|
D|-0---0-0-1-1-1-1-2-2-2-3-0-0-|-0---0-0-1-1-1-1-2-2-2-3-0-0-|
A|-0---0-0-1-1-1-1-2-2-2-3-0-0-|-0---0-0-1-1-1-1-2-2-2-3-0-0-|
E|-0---0-0-1-1-1-1-2-2-2-3-0-0-|-0---0-0-1-1-1-1-2-2-2-3-0-0-|
  1 + 2 + 3 + 4 + 5 + 6 + 7 +   1 + 2 + 3 + 4 + 5 + 6 + 7 +
P.M.  [---------------------------------------------------]
*vibrato

   D5      Eb5     E5    F5D5    D5      Eb5     E5    F5D5   
e|-----------------------------|-----------------------------|
B|10v*-------------------------|10v--------------------------|
G|10v--------------------------|10v--------------------------|
D|-0---0-0-1-1-1-1-2-2-2-3-0-0-|-0---0-0-1-1-1-1-2-2-2-3-0-0-|
A|-0---0-0-1-1-1-1-2-2-2-3-0-0-|-0---0-0-1-1-1-1-2-2-2-3-0-0-|
E|-0---0-0-1-1-1-1-2-2-2-3-0-0-|-0---0-0-1-1-1-1-2-2-2-3-0-0-|
  1 + 2 + 3 + 4 + 5 + 6 + 7 +   1 + 2 + 3 + 4 + 5 + 6 + 7 +
P.M.  [---------------------------------------------------]

[Riff B] (x8)
   D5      Eb5     E5    F5D5   
e|-----------------------------|
B|-3---------------------------|
G|-2---------------------------|
D|-0-------1-------2-----3-----|
A|-0-------1-------2-----3-----|
E|-0-------1-------2-----3-----|
  1 + 2 + 3 + 4 + 5 + 6 + 7 +  

[Chorus]
   D5  Bb5           A5                 C5                B5          D5Bb5
e|---|---------------------------------|------------------------------------|
B|---|-----------------------------10--|------------------------------------|
G|---|---------------------------------|------------------------------------|
D|-0-|s8---8---8-8-8-7---7---7-9t11----|10--10---10-10-10-9---9---9---0-8---|
A|-0-|s8---8---8-8-8-7---7---7---------|10--10---10-10-10-9---9---9---0-8---|
E|-0-|s8---8---8-8-8-7---7---7---------|10--10---10-10-10-9---9---9---0-8---|
 +   1 + 2 + 3 + 4 + 5 + 6 + 7 + 8 +   1 + 2  + 3  +  4 + 5 + 6 + 7 + 8 +

[Riff A] (x2)
   D5      Eb5     E5    F5D5    D5      Eb5     E5    F5D5   
e|-----------------------------|-----------------------------|
B|10v*-------------------------|10v--------------------------|
G|10v--------------------------|10v--------------------------|
D|-0---0-0-1-1-1-1-2-2-2-3-0-0-|-0---0-0-1-1-1-1-2-2-2-3-0-0-|
A|-0---0-0-1-1-1-1-2-2-2-3-0-0-|-0---0-0-1-1-1-1-2-2-2-3-0-0-|
E|-0---0-0-1-1-1-1-2-2-2-3-0-0-|-0---0-0-1-1-1-1-2-2-2-3-0-0-|
  1 + 2 + 3 + 4 + 5 + 6 + 7 +   1 + 2 + 3 + 4 + 5 + 6 + 7 +
P.M.  [---------------------------------------------------]
*vibrato

   D5      Eb5     E5    F5D5    D5      Eb5     E5    F5D5   
e|-----------------------------|-----------------------------|
B|10v*-------------------------|10v--------------------------|
G|10v--------------------------|10v--------------------------|
D|-0---0-0-1-1-1-1-2-2-2-3-0-0-|-0---0-0-1-1-1-1-2-2-2-3-0-0-|
A|-0---0-0-1-1-1-1-2-2-2-3-0-0-|-0---0-0-1-1-1-1-2-2-2-3-0-0-|
E|-0---0-0-1-1-1-1-2-2-2-3-0-0-|-0---0-0-1-1-1-1-2-2-2-3-0-0-|
  1 + 2 + 3 + 4 + 5 + 6 + 7 +   1 + 2 + 3 + 4 + 5 + 6 + 7 +
P.M.  [---------------------------------------------------]

[Chorus]
   D5  Bb5           A5                 C5                B5          D5Bb5
e|---|---------------------------------|------------------------------------|
B|---|-----------------------------10--|------------------------------------|
G|---|---------------------------------|------------------------------------|
D|-0-|s8---8---8-8-8-7---7---7-9t11----|10--10---10-10-10-9---9---9---0-8---|
A|-0-|s8---8---8-8-8-7---7---7---------|10--10---10-10-10-9---9---9---0-8---|
E|-0-|s8---8---8-8-8-7---7---7---------|10--10---10-10-10-9---9---9---0-8---|
 +   1 + 2 + 3 + 4 + 5 + 6 + 7 + 8 +   1 + 2  + 3  +  4 + 5 + 6 + 7 + 8 +

[Riff A]
   D5      Eb5     E5    F5D5    D5      Eb5     E5    F5D5   
e|-----------------------------|-----------------------------|
B|10v*-------------------------|10v--------------------------|
G|10v--------------------------|10v--------------------------|
D|-0---0-0-1-1-1-1-2-2-2-3-0-0-|-0---0-0-1-1-1-1-2-2-2-3-0-0-|
A|-0---0-0-1-1-1-1-2-2-2-3-0-0-|-0---0-0-1-1-1-1-2-2-2-3-0-0-|
E|-0---0-0-1-1-1-1-2-2-2-3-0-0-|-0---0-0-1-1-1-1-2-2-2-3-0-0-|
  1 + 2 + 3 + 4 + 5 + 6 + 7 +   1 + 2 + 3 + 4 + 5 + 6 + 7 +
P.M.  [---------------------------------------------------]
*vibrato

   D5      Eb5     E5    F5D5    D5      Eb5     E5    F5D5   
e|-----------------------------|-----------------------------|
B|10v*-------------------------|10v--------------------------|
G|10v--------------------------|10v--------------------------|
D|-0---0-0-1-1-1-1-2-2-2-3-0-0-|-0---0-0-1-1-1-1-2-2-2-3-0-0-|
A|-0---0-0-1-1-1-1-2-2-2-3-0-0-|-0---0-0-1-1-1-1-2-2-2-3-0-0-|
E|-0---0-0-1-1-1-1-2-2-2-3-0-0-|-0---0-0-1-1-1-1-2-2-2-3-0-0-|
  1 + 2 + 3 + 4 + 5 + 6 + 7 +   1 + 2 + 3 + 4 + 5 + 6 + 7 +
P.M.  [---------------------------------------------------]

[Riff B] (x8)
   D5      Eb5     E5    F5D5   
e|-----------------------------|
B|-3---------------------------|
G|-2---------------------------|
D|-0-------1-------2-----3-----|
A|-0-------1-------2-----3-----|
E|-0-------1-------2-----3-----|
  1 + 2 + 3 + 4 + 5 + 6 + 7 +  

[Chorus] (x3)
   D5  Bb5           A5                 C5                B5          D5Bb5
e|---|---------------------------------|------------------------------------|
B|---|-----------------------------10--|------------------------------------|
G|---|---------------------------------|------------------------------------|
D|-0-|s8---8---8-8-8-7---7---7-9t11----|10--10---10-10-10-9---9---9---0-8---|
A|-0-|s8---8---8-8-8-7---7---7---------|10--10---10-10-10-9---9---9---0-8---|
E|-0-|s8---8---8-8-8-7---7---7---------|10--10---10-10-10-9---9---9---0-8---|
 +   1 + 2 + 3 + 4 + 5 + 6 + 7 + 8 +   1 + 2  + 3  +  4 + 5 + 6 + 7 + 8 +


************************************

| t  Tapping

************************************
Suggest correction
comments
print report bad tab
5 comments total. Showing first comments.
0 reply
tim420 10 Apr 21, 2004 08:00 PM

AWESOME TAB.

0 reply
metal4all 50 Feb 19, 2006 03:15 PM

1/3 of the song (the solo) is missing

0 reply
MVP_44 10 May 28, 2007 01:14 PM

great tab. 5 stars

guest
You may want to rate the tab now too:
select rating
Wanna post a correction for this tab? Suggest correction