Oops, an error
Loading. Please wait.

Them Bones Bass Tab

version 3
version 3
4,902 views 3 this week
5 commentsread comments
1 2 3 4 5
worth learning
x 3
add to favorites
launch autoscroll
font size
0
reset
guitar tuner
Autoscroll
slow
fast
+/-
esc
set tempo
stop
Help us to improve Ultimate-Guitar.com Take our survey!
×
Author
Difficulty
Tuning
intermediate
D# G# C# F# A# D#
-----------------------------------------------------------------------------
                          Them Bones - Alice In Chains
-----------------------------------------------------------------------------
Tabbed By : CenTahne

This song uses flanger through out the whole thing, this is 100% because I tabbed it off 
the bass track.

This song is EXTREMELY easy to play, only two parts the verses and the chorus.


VERSES

Gb|----------------------------------------|
Db|----------------------------------------|
Ab|--5-------------------------------------|
Eb|-----0-0-0-1-1-1-1-1-1-1-1-1-1-2-2-2-2-2|


Gb|-----------------------------------------|
Db|-----------------------------------------|
Ab|---3-------------------------------------|
Eb|------0-0-0-1-1-1-1-1-1-1-1-1-1-2-2-2-2-2|

Chorus

Gb|---------------------------------|
Db|---------------------------------|
Ab|---------------------------------|
Eb|--8-8-8-8-6-6-6-6-9-9-9-9-7-7-7-7|

That's all.
Suggest correction
Give kudos to tab author, rate the tab!
1 2 3 4 5
comments
print report bad tab
5 comments total. Showing first comments.
0 reply
Carls Jr Nation 10 wrote on August 21 2010, 01:34 pm

Drop D no?

-1 reply
Centahne 122 wrote on October 5 2010, 05:06 pm

No not Drop D, Half step (D#)

So Eb,Ab,Db,Gb

0 reply
tydogg2443 522 wrote on March 7 2013, 03:36 am

Incorrect.. It's in Drop-Db. Without a doubt. You can also play it in Drop-D Standard if you leave out the open notes on the low D/Db string. But Drop-Db is the correct tuning. Check out a video of them performing it live for confirmation. Mike Starr and Mike Inez both play it pretty much the same way, and the band plays it in the same tuning live as they do in the original studio recording. Hope you take the time to correct it.

guest
You may want to rate the tab now too:
select rating
Please do not post tabs as comments. Select "correction" instead!