Oops, an error
Loading. Please wait.

Voices Tab

version 1
version 1

Whole song

Interactive

31,972 views 21 this week
15 commentsread comments
1 2 3 4 5
x 21
add to favorites
launch autoscroll
font size
0
reset
how to read this tab
guitar tuner
backing track
0:00
0:00
×
Best way to learn
"Voices"
Autoscroll
slow
fast
+/-
esc
set tempo
stop
Author
Difficulty
Tuning
  follow
novice
D# G# C# F# A# D#
Tuning: Half-step down

(Intro begins on a sweet riff like this:)
e----------------------------------------------------------------------------|
B|---------------------------------------------------------------------------|
G|---------------------------------------------------------------------------|
D|---7-4--2-4-4--4-4--4-4-4--7-4--2-4-4--4-4--2-4-4--------------------------|
A|---5-2--0-2-2--2-2--2-2-2--5-2--0-2-2--2-2--0-2-2--------------------------|
E|---5-2--0-2-2--2-2--2-2-2--5-2--0-2-2--2-2--0-2-2--------------------------|

(Jerry riffs on that part for a while through the verse, then it hits the chorus:)
e|---------------------------------------------------------------------------|
B|---------------------------------------------------------------------------|
G|---7-7-7-7-----------------4-4-4-4-7-7-7-7-----------------4-4-4-4---------|
D|---7-7-7-7-7-7-7-7-2-2-2-2-4-4-4-4-7-7-7-7-7-7-7-7-2-2-2-2-4-4-4-4---------|
A|---5-5-5-5-7-7-7-7-2-2-2-2-2-2-2-2-5-5-5-5-7-7-7-7-2-2-2-2-2-2-2-2---------|
E|-----------5-5-5-5-0-0-0-0-----------------5-5-5-5-0-0-0-0-----------------|

(After the chorus, it keeps it goin' on the verse part in the background, with this solo
played over:)
e|------------------------7----------9---------------------------------------|
B|---------------7--------7----------9-----------7---------------------------|
G|---------------7----------7--------9-----------7-------9-7-----------------|
D|---9-9-9-9--9----9-9-7------9-9-9----9-9-9-9-9---9-9-9-----9-9-------------|
A|---------------------------------------------------------------------------|
E|---------------------------------------------------------------------------|

e|---------------------------------------------------------------------------|
B|---------------------------------------------------------------------------|
G|-------7-----------6-7-7^9-7^9---------------------------------------------|
D|---7-9---9-9~---/9-------------7h9~----------------------------------------|
A|---------------------------------------------------------------------------|
E|---------------------------------------------------------------------------|

(After this it comes back to the verse, which is the same as the first one. This is
followed by the chorus, which is twice as long. Then it hits the bridge part, which is 
as follows:)
e|---------------------------------------------------------------------------|
B|---------------------------------------------------------------------------|
G|-------------------4-4-4-4-7-7-----------------------4-4-4-4-7-7-----------|
D|---5-5-5-5-2-2-2-2-4-4-4-4-7-7-7-7-5-5-5-5-2-2-2-2-4-4-4-4-7-7-7-7---------|
A|---5-5-5-5-2-2-2-2-2-2-2-2-5-5-7-7-5-5-5-5-2-2-2-2-2-2-2-2-5-5-7-7---------|
E|---3-3-3-3-0-0-0-0-------------5-5-3-3-3-3-0-0-0-0-------------5-5---------|


************************************

| h  Hammer-on
| /  Slide up
| ~  Vibrato
  

************************************
Suggest correction
comments
print report bad tab
15 comments total. Showing first comments.
+1 reply
acgrunge 10 May 27, 2013 12:34 PM

Great job on the chords

+1 reply
Jaytee805 511 May 27, 2013 01:59 PM

Thanks bro

+6 reply
mitchmitchhh 134 May 28, 2013 01:40 PM

Was just gonna post a tab for this, you beat me to it! I think the intro riff might sound closer if you play it like this:

e|---------------------------------------------------------------------------|
B|---------------------------------------------------------------------------|
G|---7-2----4-4--4-4--4-4-4--7-2----4-4--4-4--2-4-4--------------------------|
D|---7-2--2-4-4--4-4--4-4-4--7-2--2-4-4--4-4--2-4-4--------------------------|
A|---5-0--2-2-2--2-2--2-2-2--5-0--2-2-2--2-2--0-2-2--------------------------|
E|---5-0--0-2-2--2-2--2-2-2--5-0--0-2-2--2-2--0-2-2--------------------------|


Other than that, great job on the tab!

guest
You may want to rate the tab now too:
select rating
Wanna post a correction for this tab? Suggest correction