Oops, an error
Loading. Please wait.

Voices tab

version 3
version 3

Whole song

Interactive

1,349 views 1 this week
3 commentsread comments
1 2 3 4 5
x 4
add to favorites
×
Save as Personal and add changes to this tab that will be seen only by you. Learn more ›
×
You can save this tab as Personal to edit and correct it or add notes. All changes will be seen only by you. Learn more »
launch autoscroll
font size
0
reset
how to read this tab
guitar tuner
backing track
0:00
0:00
edit
Autoscroll
slow
fast
+/-
esc
set tempo
stop
Author
-----------------------------------------------------------------------------
          Alice In Chains - Voices - The Devil Put Dinosaurs Here
-----------------------------------------------------------------------------

Tabbed by: Ashley Power
E-mail: ashleypower@hotmail.com

Electric Tuning: (baritone standard tuning) Half-step down
Acoustic Tuning: Half-step down

Just watch it played live; this is correct.

Just listen to the tune for strumming patern.


Verses (baritone):

b |-----------0--|
F#|--3--3-----0--|
D |--0--2--2--1--|
A |-----0--2--2--|
E |--------0--2--|
B |-----------0--|


Verses (acoustic):

e|------------------|
B|-3----------------|
G|-2--2-------4--4--|
D|-0--2---2---4--4--|
A|----0---2---2--2--|
E|--------0---2--2--|


Chorus (baritone):

b |-----------0--|
F#|--3--3-----0--|
D |--0--2--2--1--|
A |-----0--2--2--|
E |--------0--2--|
B |-----------0--|


Chorus (acoustic):

e|--------------|
B|--3-----------|
G|--2--2-----4--|
D|--0--2--2--4--|
A|-----0--2--2--|
E|--------0--2--|


After Chorus (baritone):

b |--0-----0-----|
F#|--1-----0--3--|
D |--0--2--1--2--|
A |--2--2--2--0--|
E |--3--0--2-----|
B |--------0-----|


After Chorus (acoustic):

e|--------------|
B|--3-----------|
G|--0--------2--|
D|--0--2--1--2--|
A|--X--2--2--0--|
E|--3--0--2-----|


************************************
| /   slide up
| \   slide down
| H   hammer-on
| p   pull-off
| ~   vibrato
| +   harmonic
| x   Mute note
| ^   Bend
************************************

            
            
Suggest correction
Creating personal tab
Creating personal tab
You can edit any tab online and save it as your Personal.

You can edit, replace or remove any tab part or add personal notes – all changes will be seen only by you.

Personal tabs can be accessed anytime from any device, even offline.
Learn more »
comments
print report bad tab
3 comments total.
0 reply
ashleypower 99 Sep 04, 2013 08:49 AM, edited on March 5 2014, 12:49 am

http://www.youtube.com/watch?v=4TnTX3DWs6s

7:15

0 reply
ashleypower 99 Oct 06, 2013 10:10 AM, edited on March 5 2014, 12:49 am

Baritone.

0 reply
ashleypower 99 Oct 08, 2013 09:31 PM

I don't understand how a correct tab can get 1 star and incorrect tabs get 4 and 5 stars haha.

guest
You may want to rate the tab now too:
select rating
Wanna post a correction for this tab? Suggest correction