Oops, an error
Loading. Please wait.

Voices tab

version 4
version 4

Whole song

Interactive

142 views 12 this week
no commentswrite comment
1 2 3 4 5
1 last vote to show rating
add to favorites
×
Save as Personal and add changes to this tab that will be seen only by you. Learn more ›
×
You can save this tab as Personal to edit and correct it or add notes. All changes will be seen only by you. Learn more »
launch autoscroll
font size
0
reset
how to read this tab
guitar tuner
backing track
0:00
0:00
edit
Autoscroll
slow
fast
+/-
esc
set tempo
stop
Artist: Alice in Chains
Song: Voices (Studio Version)
Tuning: Baritone, Bb Eb Ab Db F Bb
        Electric, Eb tuning
Tabbed by: jjhand

Such a great melodic song! I tried to get close to the studio version since 
their concert version differed slightly. Check out Jerry's Baritone playing 
in the video below and rate or comment.

https://www.youtube.com/watch?v=X4WH4ZQ-4Ns


Intro - fade in, then out at end with heavy reverb/delay

eb|-----------------|-----------------|----------------|------------------|
Bb|-7-8-8-8-8-7-5---|-7---5---3---5---|----------------|-3----------------|
Gb|-0-0-0-0-0-0-0---|-0---0---0---0---|-4----------2-4-|------------------|
Db|-----------------|-----------------|----------------|------------------|
Ab|-----------------|-----------------|----------------|------------------|
Eb|-----------------|-----------------|----------------|------------------|

eb|-----------------|-----------------|----------------|------------------|
Bb|-7-8-8-8-8-7-5---|-7---5---3---5---|-12--------10-12|-10~--------------|
Gb|-0-0-0-0-0-0-0---|-0---0---0---0---|-0---------0--0-|-0----------------|
Db|-----------------|-----------------|----------------|------------------|
Ab|-----------------|-----------------|----------------|------------------|
Eb|-----------------|-----------------|----------------|------------------|


Verse - Baritone Part

                      let strings ring
Bb|--3---------------0--|--(0)---------------------|
F |--3--3------------0--|--(0)---------------------|
Db|--0--2----2-------4--|--(4)--4--4--2--2--4--4---|
Ab|--0--0----2----2--2--|--(2)--2--2--2--2--2--2---|
Eb|-----0----0----2--2--|--(2)---------------------|
Bb|---------------0--0--|--(0)---------------------|




Chorus - 

  Lead
eb|--------3----2-----|-------------------|------4-5----4-----|---------------|
Bb|------3--------3---|--------3----2-----|----5----------5---|-----4-4-------|
Gb|-----------------2-|------2--------2---|--4--------------4-|---4-----------|
Db|-0-----------------|-----------------2-|-------------------|-4-------------|
Ab|-------------------|-0-----------------|-------------------|---------------|
Eb|-------------------|-------------------|-------------------|---------------|
  |
  | Baritone
  | Db                  Ab                  Eb                  Bb
Bb|-3----3-3----3-3-3-|-2----2-2----2-2-2-|-0----0-0----0-0-0-|-0----0-0------|
F |-3----3-3----3-3-3-|-3----3-3----3-3-3-|-2----2-2----2-2-2-|-0----0-0------|
Db|-0----0-0----0-0-0-|-2----2-2----2-2-2-|-2----2-2----2-2-2-|-1----1-1------|
Ab|-0----0-0----0-0-0-|-0----0-0----0-0-0-|-2----2-2----2-2-2-|-2----2-2------|
Eb|-x----x-x----x-x-x-|-0----0-0----0-0-0-|-0----0-0----0-0-0-|-2----2-2------|
Bb|-3----3-3----3-3-3-|-------------------|-------------------|-0----0-0------|




Short Solo before Verse 2 - Lead (Baritone can play it 5 frets above)

eb|-----9-----7---------|------------------|-----9-----7---------|
Bb|-----------------7~--|-------7---10-----|-----------------7~--|
Gb|---------------------|--------------7b--|---------------------|
Db|-7h9---9-9---9-9-----|-----9---9------9-|-7h9---9-9---9-9-----|
Ab|---------------------|------------------|---------------------|
Eb|---------------------|------------------|---------------------|

|-------------------|--------------------|--------------|------------------|-----
|-------7-----------|--------------------|--------------|-2-3-3b5-b5-------|-----
|-----------9-7-----|-9-------7-------4--|-(4)--------2-|---------------2--|--4~~
|-----9---9-9---9-7-|-9--9----7-------4--|-(4)----------|------------------|-----
|-------------------|-7--7----5-------2--|-(2)----------|------------------|-----
|-------------------|-----------------2--|-(2)----------|------------------|-----


Play Verse Riff Again


Play Chorus Again 2x




Bridge - played 4x

    Lead
eb|-------------------|------------------|-0-----------------|-0----------------|
Bb|-7-8--8-8--8-7-5-7-|-7\5--------------|-12----------------|-10---------------|
Gb|-0-0--0-0--0-0-0-0-|-0----------------|-0-----------------|-0----------------|
Db|-------------------|------------------|-------------------|------------------|
Ab|-------------------|------------------|-------------------|------------------|
Eb|-------------------|------------------|-------------------|------------------|
  |
  | Baritone
Bb|-------------------|------------------|-0----0-0----0-0-0-|-2----2-2-----2-2-|
F |-1----1-1----1-1-1-|-2----2-2-----2-2-|-0----0-0----0-0-0-|-3----3-3-----3-3-|
Db|-0----0-0----0-0-0-|-2----2-2-----2-2-|-1----1-1----1-1-1-|-2----2-2-----2-2-|
Ab|-2----2-2----2-2-2-|-2----2-2-----2-2-|-2----2-2----2-2-2-|-0----0-0-----0-0-|
Eb|-3----3-3----3-3-3-|-0----0-0-----0-0-|-2----2-2----2-2-2-|-0----0-0-----0-0-|
Bb|-3----3-3----3-3-3-|------------------|-0----0-0----0-0-0-|------------------|



Play Verse Riff Again, add in Lead after 4 bars:

Lead Riff
eb|---------------------|--------------------|---------------------|------------|
Bb|-----7*----------7~--|------7---10--------|-10------------------|------------|
Gb|-----7---------------|-------------7b-----|----7b---9---9-11----|------------|
Db|-7/9---9-9-9-9-9-----|----9---9-------9-9-|-------9----------9PH~------------|
Ab|---------------------|--------------------|---------------------|------------|
Eb|---------------------|--------------------|---------------------|------------|



Play Verse Riff Again (Baritone), add Lead riff

Last Verse Lead Riff, played 2x:
eb|-----------------|--------------------|
Bb|-----------------|--------------------|
Gb|-----------------|-4-2________--------|
Db|-----4-3-4-3-4-3-|--------------------|
Ab|-----------------|--------------------|
Eb|-----------------|--------------------|


Play Chorus Again


Play Bridge Again


Ending - Baritone plays Verse Riff, Lead plays:

eb|-----9-----7---------|--------------------|---------------|------------|
Bb|-----------------7~--|------7---10--------|-7-----9-------|------------|
Gb|---------------------|-------------7b-----|-7-----9----x--|------------|
Db|-7/9---9-9---9-9-----|----9---9-------9-9-|---9--------x--|-9----------|
Ab|---------------------|--------------------|---------------|-9----------|
Eb|---------------------|--------------------|---------------|-7----------|



************************************
Key
| /   slide up
| \   slide down
| h   hammer-on
| p   pull-off
| ~   vibrato
| PH  pinch harmonic
| x   Mute note
| *   ghost note (lightly played)
| b   Bend
| pb  Pre-bend
| br  Bend release

************************************


Lyrics:

Who am I? 
Is this me?
Am I one? 
Or thirteen?

I've gone cold
Hard to deal
Used to stand
Where I kneel

Everybody listen
Voices in my head
Everybody listen
Does yours say what mine says?

I want more
Than I need
I don't know
What is real

Everybody listen
Voices in my head
Everybody listen
Does yours say what mine says?

Every time I listen
Voices in my head
Everybody listen
Does yours say what mine says?

Whispering their names
Faces, uniforms I've worn
Now that it's gone
Always climbing
To fall down again
Holding on to everything
It's not what it seems

I've been told
Dreaming's free
Think I'll go
Back to sleep

Everybody listen
Voices in my head
Everybody listen
Does yours say what mine says?

Every time I listen
Voices in my head
Everybody listen
Does yours say what mine says?

Calling out their names
Faces, uniforms I've worn
Now that it's gone
Always climbing
To fall down again
Holding on to everything
It's not what it seems

            
            
Suggest correction
Creating personal tab
Creating personal tab
You can edit any tab online and save it as your Personal.

You can edit, replace or remove any tab part or add personal notes – all changes will be seen only by you.

Personal tabs can be accessed anytime from any device, even offline.
Learn more »
Give kudos to tab author, rate the tab!
1 2 3 4 5
comments
print report bad tab
guest
You may want to rate the tab now too:
select rating
Wanna post a correction for this tab? Suggest correction