Oops, an error
Loading. Please wait.

Whale And Wasp Bass Tab

version 1
version 1

Whole song

Interactive

1,737 views 1 this week
no commentswrite comment
1 2 3 4 5
1 last vote to show rating
add to favorites
launch autoscroll
font size
0
reset
guitar tuner
Autoscroll
slow
fast
+/-
esc
set tempo
stop
Help us to improve Ultimate-Guitar.com Take our survey!
×
Author
Thanks go to the unregistered user, submitting a bass part, yet on Guitar Pro, denying 
users their chance to view.

Whale And Wasp
by: Alice In Chains
from the album: Jar Of Flies
bassist: Mike Inez
tabbed originally by: anon.
edited by: Gerbs

Tuning down half a step (Eb,Ab,Db,Gb)

Riff 1:
|--------------------|
|--------------------|
|----------------6---|
|6-5-4-3-----6-8---3-|

Riff 2:
|--------------------|
|----------------0---|
|-----------3-2------|
|3-2--21-0-----------|

Riff 3:
|--------------------|
|--------------------|
|--0--2--3--3--2--0--|
|3------------------3|

Riff 4:
|--------------------|
|--------------------|
|5-------2---3-------|
|----3----------3----|

Order:
Riff 1 x 4
Riff 2 x 2
Riff 1 x 2
Riff 3 x 4
Riff 4 x 4
Riff 1 x 2

Thanks again, unregistered bloke!
Suggest correction
Give kudos to tab author, rate the tab!
1 2 3 4 5
comments
print report bad tab
guest
You may want to rate the tab now too:
select rating
Wanna post a correction for this tab? Suggest correction