Oops, an error
Loading. Please wait.

Whale And Wasp tab

version 2
version 2

Whole song

Interactive

7,314 views 6 this week
no commentswrite comment
1 2 3 4 5
2 more votes to show rating
add to favorites
×
Save as Personal and add changes to this tab that will be seen only by you. Learn more ›
×
You can save this tab as Personal to edit and correct it or add notes. All changes will be seen only by you. Learn more »
launch autoscroll
font size
0
reset
how to read this tab
guitar tuner
edit
Autoscroll
slow
fast
+/-
esc
set tempo
stop
Author
Difficulty
--------------------------------------------------------------------------
              WHALE & WASP- Alice in Chains- Jar of Flies 
--------------------------------------------------------------------------
Tabbed by: Ryan
Email:whiterabbit6573@aol.com


Tuning: E Flat Tuning (Eb,Ab,Db,Gb,Bb,eb)

Fingerpick

(Use Open G Chord Formation Throughout)

eb ||:---6----------5--------4--------3-----------3--------------6-----8----11---||
Bb ||:------6----------5---------4--------3----------3-------------6-----8-------||
Gb ||:---------0----------0-----------------0-----------0------------------------||
Db ||:---------------------------------------------------------------------------||
Ab ||:---------------------------------------------------------------------------||
Eb ||:---6----------5--------4--------3--------3------------3----6-----8----11---||


Lead:
       full bend, slow release             
eb|----/--------|
Bb|--10br-------|
Gb|-------------|
Db|-------------|
Ab|-------------|
Eb|-------------|

I can start you off with the solo:

                    Full bend, release   Slow bend   Full bend, release
eb |---------------/-------------------/-----------/---------------------|
Bb |--12~--13~---13---------12br-----10^--------10br-------8~------------|
Gb |---------------------------------------------------------------------|
Db |---------------------------------------------------------------------|
Ab |---------------------------------------------------------------------|
Eb |---------------------------------------------------------------------|


| /  slide up
| \  slide down
| h  hammer-on
| p  pull-off
| ~  vibrato
| +  harmonic
| x  Mute note
===========================================================================

            
            
Suggest correction
Creating personal tab
Creating personal tab
You can edit any tab online and save it as your Personal.

You can edit, replace or remove any tab part or add personal notes – all changes will be seen only by you.

Personal tabs can be accessed anytime from any device, even offline.
Learn more »
Give kudos to tab author, rate the tab!
1 2 3 4 5
comments
print report bad tab
guest
You may want to rate the tab now too:
select rating
Wanna post a correction for this tab? Suggest correction