Oops, an error
Loading. Please wait.

What The Hell Have I Bass Tab

version 2
version 2

Whole song

Interactive

3,060 views 18 this week
no commentswrite comment
1 2 3 4 5
excellent!
x 3
add to favorites
launch autoscroll
font size
0
reset
guitar tuner
Autoscroll
slow
fast
+/-
esc
set tempo
stop
Help us to improve Ultimate-Guitar.com Take our survey!
×
Contributor
Difficulty
Tuning
intermediate
D# G# C# F# A# D#
"What the Hell Have I" by Alice in Chains(1993)
Bassist: Mike Inez
Tuning: Half-Step(Eb,Ab,Db,Gb)
Tabbed by: Ty W.(tydogg2443@aol.com)
-----------------------------------------------------------------------------------------

This is a very fun song to play, but ridiculously difficult to tab. There are only two
other versions of this tab floating around right now, and neither has the accurate verses, 
but my tabbing of the verses should be near perfect. 
You'll hear more intricate cymbal work through the first half of each verse, during which you 
play Verse Pt.1. You'll notice the beat becomes more solid through the second half of each verse. 
The cymbals are used less, and the drums begin to pick up. That is where Verse Pt.2 comes in. 

The problem is the chorus. There are at least 4 different chorus variations throughout the song.
For this tab, I've had to stick in two of my own variations as well as a few guesses.
It's difficult to pin it down. But if anyone figures out more of the variations, 
feel free to e-mail them to me and I'll revise this tab. I'll also give credit for the help.
But in the end, putting your own spin on things is half the fun, so don't I wouldn't 
worry about the accuracy of the Chorus variations. 

=========================================================================================


Verse Pt.1 
Gb|-3h2-------------------------------------||-2-3h2------------------------------|
Db|------0------------------2^----------3---||--------0------------------2^---0---|
Ab|---------4-----0--1--0------------3------||-----------4-----0--1--0------------|
Eb|------------3-----------------1----------||--------------3---------------------|


Verse Pt.2 
Gb|-3h2------------------------------------||-2-3h2-----------------------------|
Db|------0-----------------------------3---||--------0----------------------0---|
Ab|---------4-----0--1--0-----------3------||-----------4-----0--1--0--0--------|
Eb|------------3----------------1----------||--------------3--------------------|



Chorus Variations
Gb|--------------------------------------|
Db|--------------------------------------|
Ab|-----------3--2--0--5--5--5-----------|
Eb|--0--1--0--------------------5--5--5--|

Gb|----------------------------------------|
Db|--------------------------------------7-|
Ab|-------------3--2--0--5--5--------5-7---|
Eb|-0--0--1--0----------------5--5-7-------|

Gb|----------------------------------------------|
Db|----------------------------------------------|
Ab|-----------3--2--0----5--5--0/--12--12-12-12--|
Eb|--0--1--0-------------------------------------|

Gb|----------------------------------|
Db|----------------------------------|
Ab|-------------3--2--0----5---------|
Eb|-0--0--1--0-------------------5---|
  


Outro (03:31)
Gb|-3h2------------------------------------||-2-3h2-----------------------------|
Db|------0-----------------------------3---||--------0----------------------0---|
Ab|---------4-----0--1--0-----------3------||-----------4-----0--1--0--0--------|
Eb|------------3----------------1----------||--------------3--------------------|

Gb|-3h2------------------------------------||-2-3-2-------------------------------------|
Db|------0-----------------------------3---||--------0----------------------3(let ring)-|
Ab|---------4-----0--1--0-----------3------||-----------4-----0--1--0--0----------------|
Eb|------------3----------------1----------||--------------3----------------------------|
  
Suggest correction new What's this?
You can suggest a correction to this tab. Community and Mods will review your correction and vote to approve or reject it.
comments
We did not receive enough feedback on this tab! Please rate:
print report bad tab
1 2 3 4 5
guest
You may want to rate the tab now too:
select rating
Please do not post tabs as comments. Select "correction" instead!