Oops, an error
Loading. Please wait.

What The Hell Have I Tab

version 4
version 4

Whole song

Interactive

11,020 views 1 this week
1 commentread comment
1 2 3 4 5
excellent!
x 9
add to favorites
launch autoscroll
font size
0
reset
how to read this tab
guitar tuner
Tab Pro tools
  • play this tab
  • loop segment
  • change instrument
  • show fretboard
  • metronome
×
Best way to learn
"What The Hell Have I"
Autoscroll
slow
fast
+/-
esc
set tempo
stop
Contributor
Difficulty
intermediate
What the Hell Have I?
---------------------

Tuned down a half-step (Chords given in regular tuning)

Verse
-----

 A                                            F
|--------------------------------|--------------------------------|
|--------------------------------|--------------------------------|
|2b3b2---------------------------|----------------------------2---|
|--------0-----------------------|----2b3b2---------------3-------|
|------------4-------0---1---0---|--------------------3-----------|
|----------------3---------------|------------1-------------------|
 1 e + a 2 e + a 3 e + a 4 e + a  1 e + a 2 e + a 3 e + a 4 e + a

 A                                            D5
|--------------------------------|--------------------------------|
|--------------------------------|------------3-------------------|
|2b3b2---------------------------|------------2-------------------|
|--------0-----------------------|----2b3b2---0-------------------|
|------------4-------0---1---0---|------------0-------------------|
|----------------3---------------|--------------------------------|
 1 e + a 2 e + a 3 e + a 4 e + a  1 e + a 2 e + a 3 e + a 4 e + a

Chorus
------

 E5      F5  E5              D5       D5  A
|--------------------------------|--------------------------------|
|----------------------------3---|----3---------------------------|
|----------------------------2---|----2---2-----------------------|
|2-------3---2---------------0---|----0---2-----------------------|
|2-------3---2-------3---2---0---|----0---0-----------------------|
|0-------1---0-------------------|--------------------------------|
 1 e + a 2 e + a 3 e + a 4 e + a  1 e + a 2 e + a 3 e + a 4 e + a

 E5  F5  E5                  D5       D5  A
|--------------------------------|--------------------------------|
|----------------------------3---|----3---------------------------|
|----------------------------2---|----2---2-----------------------|
|2---3---2-------------------0---|----0---2-----------------------|
|2---3---2-------3---2---0---0---|----0---0-----------------------|
|0---1---0-----------------------|--------------------------------|
 1 e + a 2 e + a 3 e + a 4 e + a  1 e + a 2 e + a 3 e + a 4 e + a

Last Time
---------

 A                                            F
|--------------------------------|--------------------------------|
|--------------------------------|--------------------------------|
|2b3b2---------------------------|----------------------------2---|
|--------0-----------------------|----2b3b2---------------3-------|
|------------4-------0---1---0---|--------------------3-----------|
|----------------3---------------|------------1-------------------|
 1 e + a 2 e + a 3 e + a 4 e + a  1 e + a 2 e + a 3 e + a 4 e + a

 A                                            D5
|--------------------------------|--------------------------------|
|--------------------------------|--------------------------------|
|2b3b2---------------------------|------------2-------------------|
|--------0-----------------------|----2b3b2---3-------------------|
|------------4-------0---1---0---|------------3-------------------|
|----------------3---------------|------------1-------------------|
 1 e + a 2 e + a 3 e + a 4 e + a  1 e + a 2 e + a 3 e + a 4 e + a

By Alice in Chains from "The Last Action Hero Soundtrack" (1993)

Transcribed by Randall Trowbridge

--
Randall Trowbridge
randallt@falcon.cc.ukans.edu

Song: What The Hell Have I?
Location: Last Action Hero - Music From The Original Motion Picture, Music Bank


[Intro]
    [Gtr.1 Distorted Electric doubled by Electric Sitar]
Eb|------------------|------------------|------------------|---------|
Bb|------------------|------------------|------------------|-------3-| Play
Gb|-2b3r2------------|----------------2-|-2b3r2------------|-------2-| Twice
Db|-------0----------|-2b3r2--------3---|-------0----------|-2b3r2-0-|
Ab|---------4---0-1-0|------------3-----|---------4---0-1-0|-------0-|
Eb|-----------3------|--------1---------|-----------3------|---------|


[1st Verse]
    [Gtr.1 Distorted Electric doubled by Electric Sitar]
Eb|------------------|------------------|------------------|---------|
Bb|------------------|------------------|------------------|-------3-|
Gb|-2b3r2------------|----------------2-|-2b3r2------------|-------2-|
Db|-------0----------|-2b3r2--------3---|-------0----------|-2b3r2-0-|
Ab|---------4---0-1-0|------------3-----|---------4---0-1-0|-------0-|
Eb|-----------3------|--------1---------|-----------3------|---------|
  | [Gtr.2 Electric Sitar]                                           |
Eb|------------------|------------------|------------------|---------|
Bb|-----8~-------10--|-----8~-------10--|-----8~-------10--|-----7~--|
Gb|-9--------9-------|-9--------9-------|-9--------9-------|-9-------|
Db|------------------|------------------|------------------|---------|
Ab|------------------|------------------|------------------|---------|
Eb|------------------|------------------|------------------|---------|
  | [Gtr.3 Distorted Electric]                                       |
Eb|------------------|------------------|------------------|---------|
Bb|------------------|------------------|------------------|---------| Play
Gb|---------(6)b7====|==r6--------------|------------------|---------| Four
Db|----------*-------|-----7------------|------------------|---------| Times
Ab|----------*-------|----------7b8==r7-|------------------|---------|
Eb|----------*-------|------------------|------------------|---------|
             *
             * * Gtr.3 : Prebend from 6 up to 7 then strike note and
                         hold at 7 until r6 (release to 6).


[1st Chorus]
    [Gtr.4 Heavily Distorted Electric]
Eb|------------------|------------------|------------------|---------|
Bb|------------------|-3---3------------|-----------------3|----3----| Play
Gb|------------------|-2---2--2---------|-----------------2|----2--2-| Twice
Db|------------------|-0---0--2---------|-----------------0|----0--2-|
Ab|2----3--2----3--2-|-0---0--0---------|-2-3-2--3--2--0--0|----0--0-|
Eb|0----1--0---------|------------------|-0-1-0------------|---------|


[1st Interlude]
    [Gtr.1 Distorted Electric doubled by Electric Sitar]
Eb|------------------|------------------|------------------|---------|
Bb|------------------|------------------|------------------|-------3-|
Gb|-2b3r2------------|----------------2-|-2b3r2------------|-------2-|
Db|-------0----------|-2b3r2--------3---|-------0----------|-2b3r2-0-|
Ab|---------4---0-1-0|------------3-----|---------4---0-1-0|-------0-|
Eb|-----------3------|--------1---------|-----------3------|---------|
  | [Gtr.2 Electric Sitar]                                           |
Eb|------------------|------------------|------------------|---------|
Bb|-----8~-------10--|-----8~-------10--|-----8~-------10--|-----7~--|
Gb|-9--------9-------|-9--------9-------|-9--------9-------|-9-------|
Db|------------------|------------------|------------------|---------|
Ab|------------------|------------------|------------------|---------|
Eb|------------------|------------------|------------------|---------|
  | [Gtr.3 Distorted Electric]                                       |
Eb|------------------|------------------|------------------|---------|
Bb|------------------|------------------|------------------|---------|
Gb|-----(6)b7=====r6=|====w(-1)---------|---------------7b9|==r8==r7-|
Db|------*-----------|----*-------------|------------------|---------|
Ab|------*-----------|----*-------------|------------------|---------|
Eb|------*-----------|----*-------------|------------------|---------|
         *                *
         *                * * Gtr.3 : While sustaining 6, use the whammy bar
         *                            to slowly drop the pitch down 1 step.
         *
         * * Gtr.3 : Prebend from 6 up to 7 then strike note and
                     hold at 7 until r6 (release to 6).

[1st Interlude] (cont.)
    [Gtr.1 Distorted Electric doubled by Electric Sitar]
Eb|------------------|------------------|------------------|---------|
Bb|------------------|------------------|------------------|-------3-|
Gb|-2b3r2------------|----------------2-|-2b3r2------------|-------2-|
Db|-------0----------|-2b3r2--------3---|-------0----------|-2b3r2-0-|
Ab|---------4---0-1-0|------------3-----|---------4---0-1-0|-------0-|
Eb|-----------3------|--------1---------|-----------3------|---------|
  | [Gtr.2 Electric Sitar]                                           |
Eb|------------------|------------------|------------------|---------|
Bb|-----8~-------10--|-----8~-------10--|-----8~-------10--|-----7~--|
Gb|-9--------9-------|-9--------9-------|-9--------9-------|-9-------|
Db|------------------|------------------|------------------|---------|
Ab|------------------|------------------|------------------|---------|
Eb|------------------|------------------|------------------|---------|
  | [Gtr.3 Distorted Electric]                                       |
Eb|------------------|------------------|------------------|---------|
Bb|------------------|------------------|------------------|------8--|
Gb|------------------|------------------|------------------|---------|
Db|------------------|------------------|------------------|---------|
Ab|------7b9=========|===r7-------------|------------------|--/7-----|
Eb|------------------|---*--------------|------------------|---------|
                         *
                         * * Gtr.3 : Gradual release back to 7 which
                                     fades out by the end of the measure.

[2nd Verse]
    [Gtr.1 Distorted Electric doubled by Electric Sitar]
Eb|------------------|------------------|------------------|---------|
Bb|------------------|------------------|------------------|-------3-|
Gb|-2b3r2------------|----------------2-|-2b3r2------------|-------2-|
Db|-------0----------|-2b3r2--------3---|-------0----------|-2b3r2-0-|
Ab|---------4---0-1-0|------------3-----|---------4---0-1-0|-------0-|
Eb|-----------3------|--------1---------|-----------3------|---------|
  | [Gtr.2 Electric Sitar]                                           |
Eb|------------------|------------------|------------------|---------|
Bb|-----8~-------10--|-----8~-------10--|-----8~-------10--|-----7~--|
Gb|-9--------9-------|-9--------9-------|-9--------9-------|-9-------|
Db|------------------|------------------|------------------|---------|
Ab|------------------|------------------|------------------|---------|
Eb|------------------|------------------|------------------|---------|
  | [Gtr.3 Distorted Electric]                                       |
Eb|------------------|------------------|------------------|---------|
Bb|------------------|------------------|------------------|---------| Play
Gb|---------(6)b7====|==r6--------------|------------------|---------| Four
Db|----------*-------|-----7------------|------------------|---------| Times
Ab|----------*-------|----------7b8==r7-|------------------|---------|
Eb|----------*-------|------------------|------------------|---------|
             *
             * * Gtr.3 : Prebend from 6 up to 7 then strike note and
                         hold at 7 until r6 (release to 6).


[2nd Chorus]
    [Gtr.4 Heavily Distorted Electric]
Eb|------------------|------------------|------------------|---------|
Bb|------------------|-3---3------------|-----------------3|----3----| Play
Gb|------------------|-2---2--2---------|-----------------2|----2--2-| Twice
Db|------------------|-0---0--2---------|-----------------0|----0--2-|
Ab|2----3--2----3--2-|-0---0--0---------|-2-3-2--3--2--0--0|----0--0-|
Eb|0----1--0---------|------------------|-0-1-0------------|---------|


[2nd Interlude]
    [Gtr.1 Distorted Electric doubled by Electric Sitar]
Eb|------------------|------------------|------------------|---------|
Bb|------------------|------------------|------------------|-------3-|
Gb|-2b3r2------------|----------------2-|-2b3r2------------|-------2-|
Db|-------0----------|-2b3r2--------3---|-------0----------|-2b3r2-0-|
Ab|---------4---0-1-0|------------3-----|---------4---0-1-0|-------0-|
Eb|-----------3------|--------1---------|-----------3------|---------|
  | [Gtr.2 Electric Sitar]                                           |
Eb|------------------|------------------|------------------|---------|
Bb|-----8~-------10--|-----8~-------10--|-----8~-------10--|-----7~--|
Gb|-9--------9-------|-9--------9-------|-9--------9-------|-9-------|
Db|------------------|------------------|------------------|---------|
Ab|------------------|------------------|------------------|---------|
Eb|------------------|------------------|------------------|---------|
  | [Gtr.3 Distorted Electric]                                       |
Eb|-------17---------|------------------|------------------|---------|
Bb|---------17-----15|------13----10----|8-----6-----3/5---|---10b12=|
Gb|-----------14\12--|12\10---10\9---9\7|--7\5---5\2-------|---------|
Db|------------------|------------------|------------------|---------|
Ab|------------------|------------------|------------------|---------|
Eb|------------------|------------------|------------------|---------|

[2nd Interlude] (cont.)
    [Gtr.1 Distorted Electric doubled by Electric Sitar]
Eb|------------------|------------------|------------------|---------|
Bb|------------------|------------------|------------------|-------3-|
Gb|-2b3r2------------|----------------2-|-2b3r2------------|-------2-|
Db|-------0----------|-2b3r2--------3---|-------0----------|-2b3r2-0-|
Ab|---------4---0-1-0|------------3-----|---------4---0-1-0|-------0-|
Eb|-----------3------|--------1---------|-----------3------|---------|
  | [Gtr.2 Electric Sitar]                                           |
Eb|------------------|------------------|------------------|---------|
Bb|-----8~-------10--|-----8~-------10--|-----8~-------10--|-----7~--|
Gb|-9--------9-------|-9--------9-------|-9--------9-------|-9-------|
Db|------------------|------------------|------------------|---------|
Ab|------------------|------------------|------------------|---------|
Eb|------------------|------------------|------------------|---------|
  | [Gtr.3 Distorted Electric]                                       |
Eb|------------------|------------------|------------------|---------|
Bb|==b13=========r10-|------------------|------------------|---------|
Gb|------------------|------------------|------------------|---------|
Db|------------------|------------------|--------(9)b10====|=r9---7~-|
Ab|------------------|------------------|---------*--------|---------|
Eb|------------------|------------------|---------*--------|---------|
                                                  *
                                                  * * Gtr.3 : Prebend from
                                                              9 to 10.


[3rd Chorus]
    [Gtr.4 Heavily Distorted Electric]
Eb|------------------|------------------|------------------|---------|
Bb|------------------|-3---3------------|-----------------3|----3----| Play
Gb|------------------|-2---2--2---------|-----------------2|----2--2-| Twice
Db|------------------|-0---0--2---------|-----------------0|----0--2-|
Ab|2----3--2----3--2-|-0---0--0---------|-2-3-2--3--2--0--0|----0--0-|
Eb|0----1--0---------|------------------|-0-1-0------------|---------|

[3rd Chorus] (cont.)
    [Gtr.4 Heavily Distorted Electric]
Eb|------------------|------------------|------------------|---------|
Bb|------------------|-3---3------------|-----------------3|----3----|
Gb|------------------|-2---2--2---------|-----------------2|----2--2-|
Db|------------------|-0---0--2---------|-----------------0|----0--2-|
Ab|2----3--2----3--2-|-0---0--0---------|-2-3-2--3--2--0--0|----0--0-|
Eb|0----1--0---------|------------------|-0-1-0------------|---------|
  | [Gtr.3 Distorted Electric]                                       |
Eb|------------------|------------------|------------------|---------|
Bb|------------------|-----12-----------|------------------|---------|
Gb|------------------|-----12-----12~\--|-2b4--2b4r2p0-----|---------|
Db|------------------|-/14----/14-------|------------------|---------|
Ab|------------------|------------------|--------------7~--|2-0h2p0--|
Eb|0----1--0---------|------------------|------------------|-------3-|

[3rd Chorus] (cont.)
    [Gtr.4 Heavily Distorted Electric]
Eb|------------------|------------------|------------------|---------|
Bb|------------------|-3---3------------|-----------------3|----3----|
Gb|------------------|-2---2--2---------|-----------------2|----2--2-|
Db|------------------|-0---0--2---------|-----------------0|----0--2-|
Ab|2----3--2----3--2-|-0---0--0---------|-2-3-2--3--2--0--0|----0--0-|
Eb|0----1--0---------|------------------|-0-1-0------------|---------|
  | [Gtr.3 Distorted Electric]                                       |
Eb|------------------|------------------|------------------|---------|
Bb|------------------|-----12~----------|------------------|---------|
Gb|------------------|-----12~----12~\--|------------------|---------|
Db|------------------|-/14----/14-------|---------7b9r7p5--|---------|
Ab|------------------|------------------|-----------------7|---7~----|
Eb|0----1--0---------|------------------|------------------|---------|


[Outro]
    [Gtr.1 Distorted Electric doubled by Electric Sitar]
Eb|------------------|------------------|------------------|---------|
Bb|------------------|------------------|------------------|-------3-|
Gb|-2b3r2------------|----------------2-|-2b3r2------------|-------2-|
Db|-------0----------|-2b3r2--------3---|-------0----------|-2b3r2-0-|
Ab|---------4---0-1-0|------------3-----|---------4---0-1-0|-------0-|
Eb|-----------3------|--------1---------|-----------3------|---------|
  | [Gtr.2 Electric Sitar]                                           |
Eb|------------------|------------------|------------------|---------|
Bb|-----8~-------10--|-----8~-------10--|-----8~-------10--|-----7~--|
Gb|-9--------9-------|-9--------9-------|-9--------9-------|-9-------|
Db|------------------|------------------|------------------|---------|
Ab|------------------|------------------|------------------|---------|
Eb|------------------|------------------|------------------|---------|
  | [Gtr.3 Distorted Electric]                                       |
Eb|------------------|------------------|------------------|---------|
Bb|------------------|------------------|------------------|---------|
Gb|---------(6)b7====|==r6--------------|------------------|---------|
Db|----------*-------|-----7------------|------------------|---------|
Ab|----------*-------|----------7b8==r7-|------------------|---------|
Eb|----------*-------|------------------|------------------|---------|
             *
             * * Gtr.3 : Prebend from 6 up to 7 then strike note and
                         hold at 7 until r6 (release to 6).

[Outro] (cont.)
    [Gtr.1 Distorted Electric doubled by Electric Sitar]
Eb|------------------|------------------|------------------|---------|
Bb|------------------|------------------|------------------|-------1-|
Gb|-2b3r2------------|----------------2-|-2b3r2------------|-------2-|
Db|-------0----------|-2b3r2--------3---|-------0----------|-2b3r2-3-|
Ab|---------4---0-1-0|------------3-----|---------4---0-1-0|-------3-|
Eb|-----------3------|--------1---------|-----------3------|-------1-|
  | [Gtr.2 Electric Sitar]
Eb|------------------|------------------|------------------|---------|
Bb|-----8~-------10--|-----8~-------10--|-----8~-------10--|---------|
Gb|-9--------9-------|-9--------9-------|-9--------9-------|-9-------|
Db|------------------|------------------|------------------|-----10--|
Ab|------------------|------------------|------------------|---------|
Eb|------------------|------------------|------------------|---------|


---
comments
print report bad tab
1 comment total.
+1 reply
Ghostrelm` wrote on March 23 2011, 11:59 pm

what a great song, and a great tab to go along with it. One of the first songs I learned to play all the way through waaaaay back 15 years ago.

I want to post or [tab]
guest
You may want to rate the tab now too:
select rating
Please do not post tabs as comments. Select "correction" instead!