Oops, an error
Loading. Please wait.

When The Sun Rose Again Bass Tab

version 1
version 1

Whole song

Interactive

741 views 1 this week
no commentswrite comment
1 2 3 4 5
2 more votes to show rating
add to favorites
launch autoscroll
font size
0
reset
guitar tuner
Autoscroll
slow
fast
+/-
esc
set tempo
stop
Help us to improve Ultimate-Guitar.com Take our survey!
×
Author
Difficulty
novice
tuning Eb Ab Db Gb

:00 x8
Gb|--------------------------|
Db|--------------------------|
Ab|--------------------------|
Eb|-44444-0-4h5-444444-0-0-0-|

:41
Gb|-------------------------------|
Db|-------------------------------|
Ab|-9---7---5---4---2---0---2-0---|
Eb|-----------------------------4-|

:49 x6
Gb|--------------------------|
Db|--------------------------|
Ab|--------------------------|
Eb|-44444-0-4h5-444444-0-0-0-|

1:21
Gb|-------------------------------|
Db|-------------------------------|
Ab|-9---7---5---4---2---0---2-0---|
Eb|-----------------------------4-|

1:29
Gb|--------------------------|
Db|--------------------------|
Ab|--------------------------|
Eb|-44444-0-4h5-444444-0-0-0-|

1:34
Gb|----------------------------------------|
Db|----------------------------------------|
Ab|----------------------------------------|
Eb|-7--7--77--2--2--22--0--0--00--4--4--44-|

Gb|------------------------------|
Db|------------------------------|
Ab|------------------------------|
Eb|-7--7--77--2--2--22--0--0--00-|

1:52 x2
Gb|--------------------------|
Db|--------------------------|
Ab|--------------------------|
Eb|-44444-0-4h5-444444-0-0-0-|

2:02
Gb|----------------------------------------|
Db|----------------------------------------|
Ab|----------------------------------------|
Eb|-7--7--77--2--2--22--0--0--00--4--4--44-|

Gb|------------------------------|
Db|------------------------------|
Ab|------------------------------|
Eb|-7--7--77--2--2--22--0--0--00-|

2:20 x6
Gb|--------------------------|
Db|--------------------------|
Ab|--------------------------|
Eb|-44444-0-4h5-444444-0-0-0-|

2:52
Gb|-------------------------------|
Db|-------------------------------|
Ab|-9---7---5---4---2---0---2-0---|
Eb|-----------------------------4-|

3:00
Gb|--------------------------|
Db|--------------------------|
Ab|--------------------------|
Eb|-44444-0-4h5-444444-0-0-0-|

3:05 x3
Gb|----------------------------------------|
Db|----------------------------------------|
Ab|----------------------------------------|
Eb|-7--7--77--2--2--22--0--0--00--4--4--44-|

Gb|------------------------------|
Db|------------------------------|
Ab|------------------------------|
Eb|-7--7--77--2--2--22--0--0--00-|

x2
Gb|--------------------------|
Db|--------------------------|
Ab|--------------------------|
Eb|-44444-0-4h5-444444-0-0-0-|

Gb|---|
Db|---|
Ab|---|
Eb|-4-|
Suggest correction
Give kudos to tab author, rate the tab!
1 2 3 4 5
comments
print report bad tab
guest
You may want to rate the tab now too:
select rating
Wanna post a correction for this tab? Suggest correction