Oops, an error
Loading. Please wait.

Would Bass Tab

version 2
version 2

Whole song

51,544 views 27 this week
4 commentsread comments
1 2 3 4 5
x 14
add to favorites
launch autoscroll
font size
0
reset
guitar tuner
Autoscroll
slow
fast
+/-
esc
set tempo
stop
Help us to improve Ultimate-Guitar.com Take our survey!
×
Author
ARTIST: ALICE AND CHAINS.
TUNING:HALF STEP.
TAB:LOPEZ017.


Intro.                                                 x2
Gb|----------------------------|------------------------|
Db|o---------------------------|-----------------------o|
Ab|o---------------------------|-----------------------o|
Eb|--0h2-2-2-2-0-0-0-0-2-3~-3~-|-33-3~-0~0~-03~-00~-0~--|


Verse.                                                 x7
Gb|----------------------------|------------------------|
Db|o---------------------------|-----------------------o|
Ab|o---------------------------|-----------------------o|
Eb|--0h2-2-2-2-0-0-0-0-2-3~-3~-|-33-3~-0~0~-03~-00~-0~--|

Gb|----------------------------|------------9999999999--|
Db|----------------------------|------------9999999999--|
Ab|----------------------------|------------7777777777--|
Eb|--0h2-2-2-2-0-0-0-0-2-3~-3~-|-33-3~-0~0~-------------|


Chorus.                                  x4
Gb|------------------|--------------------|
Db|o-----------------|-------------------o|
Ab|o-----------------|-------------------o|
Eb|--5h7~-7~-7-5-2~--|--3-0-2h3-3~-3-35~--|

Verse.
Chorus.

Solo.                                                  x3
Gb|----------------------------|------------------------|
Db|o---------------------------|-----------------------o|
Ab|o---------------------------|-----------------------o|
Eb|--0h2-2-2-2-0-0-0-0-2-3~-3~-|-33-3~-0~0~-03~-00~-0~--|

Gb|----------------------------|------------9999999999--|
Db|----------------------------|------------9999999999--|
Ab|----------------------------|------------7777777777--|
Eb|--0h2-2-2-2-0-0-0-0-2-3~-3~-|-33-3~-0~0~-------------|

Chorus.

Bridge.                                                          x4
Gb|---------------------------------------------------------------|
Db|o-------------------------------------------------------------o|
Ab|o--5~5~-5-55--------------------------------------------------o|
Eb|-------------0h4~44-44-44-4~-0h3~33-33-33-3~/-0~-00-00~-00-0~--|

Outro.
Gb|------------------------------------------|
Db|------------------------------------------|
Ab|------------------------------------------|
Eb|--5--------5--------5--------5--------5~--|

Suggest correction
comments
print report bad tab
4 comments total. Showing first comments.
0 reply
jk41 732 Mar 12, 2011 05:10 AM

how can this be 5 stars, close but not that good

0 reply
lopez017 801 Mar 12, 2011 01:04 PM

Then don't play it and look up some other tab.

-2 reply
lopez017 801 Mar 12, 2011 01:07 PM

Then don't play it and go write your own version.

guest
You may want to rate the tab now too:
select rating
Wanna post a correction for this tab? Suggest correction