Oops, an error
Loading. Please wait.

Would Bass Tab

version 3
version 3

Whole song

7,301 views 6 this week
1 commentread comment
1 2 3 4 5
please rate
add to favorites
launch autoscroll
font size
0
reset
guitar tuner
Autoscroll
slow
fast
+/-
esc
set tempo
stop
Help us to improve Ultimate-Guitar.com Take our survey!
×
Author
Difficulty
Tuning
advanced
D# G# C# F# A# D#
WOULD ?

Tune down 1/2 step

Gb----------------------------------------------|------------------------------------------|
Db----------------------------------------------|------------------------------------------|
Ab----------------------------------------------|------------------------------------------|
Eb--0--2--2--2--2--0--0--0--0--2--3---3---3--3--|--3---0---0--0--0--3--0--0--0---0---0--0--|

                                                          Woo
|----------------------------------------------|------------------------------------------|
|----------------------------------------------|------------------------------------------|
|----------------------------------------------|------------------------------------------|
|--0--2--2--2--2--0--0--0--0--2--3---3---3--3--|--3---0---0--0--0--3--0--0--0---0---0--0--|

                                                1,2,3_____________________________________
|----------------------------------------------|------------------------------------------|
|*---------------------------------------------|-----------------------------------------*|
|*---------------------------------------------|-----------------------------------------*|
|--0--2--2--2--2--0--0--0--0--2--3---3---3--3--|--3---0---0--0--0--3--0--0--0---0---0--0--|

 4_________________________________________
                                                             Know me...
                                                             Drifting...
|------------------------------------------|----------------------------------------------|
|------------------------------------------|----------------------------------------------|
|------------------------------------------|----------------------------------------------|
|--3---0---0--0--0--3--0--0--0---0---3--0--|--0--2--2--2--2--0--0--0--0--2--3---3---3--3--|

                 broken by                                my master
                 body it's                                desertion
|------------------------------------------|----------------------------------------------|
|------------------------------------------|----------------------------------------------|
|------------------------------------------|----------------------------------------------|
|--3---0---0--0--0--3--0--0--0---0---0--0--|--0--2--2--2--2--0--0--0--0--2--3---3---3--3--|

                                                                  teach thee
                                                                  flying
|--------------------------------------------|----------------------------------------------|
|--------------------------------------------|----------------------------------------------|
|--------------------------------------------|----------------------------------------------|
|--3---0---0--0--0--3--0--0--0---0--0--3--0--|--0--2--2--2--2--0--0--0--0--2--3---3---3--3--|

                 on child...                  love here...
                 not yet...                        the notion
|------------------------------------------|----------------------------------------------|
|------------------------------------------|----------------------------------------------|
|------------------------------------------|----------------------------------------------|
|--3---0---0--0--0--3--0--0--0---0---0--0--|--0--2--2--2--2--0--0--0--0--2--3---3---3--3--|

                                                    into the...
|------------9--9--9--9--9--9--9--9--9--9--9--9--|----------------------------------------|
|------------9--9--9--9--9--9--9--9--9--9--9--9--|----------------------------------------|
|------------7--7--7--7--7--7--7--7--7--7--7--7--|----------------------------------------|
|--3---0-----0--0--0--0--0--0--0--0--0--0--0--0--|--5--7---7--7---7--7---5--2---3---0--2--|

                                                     back             then
|---------------------------------------------|----------------------------------------|
|---------------------------------------------|----------------------------------------|
|---------------------------------------------|----------------------------------------|
|--3---3--3--3--3--3--3--3--3--3--3--3--3--5--|--5--7---7--7---7--7---5--2---3---0--2--|

                                                 so I made a...
|---------------------------------------------|----------------------------------------|
|---------------------------------------------|----------------------------------------|
|---------------------------------------------|----------------------------------------|
|--3---3--3--3--3--3--3--3--3--3--3--3--3--5--|--5--7---7--7---7--7---5--2---3---0--2--|

                      try to see...                   my       way
|---------------------------------------------|----------------------------------------|
|---------------------------------------------|----------------------------------------|
|---------------------------------------------|----------------------------------------|
|--3---3--3--3--3--3--3--3--3--3--3--3--3--5--|--5--7---7--7---7--7---5--2---3---0--2--|

|----------------------------------------------|----------------------------------------------|
|----------------------------------------------|*---------------------------------------------|
|----------------------------------------------|*---------------------------------------------|
|--3---3--3--3--3--3--3---3--3--3--3--3--0--0--|--0--2--2--2--2--0--0--0--0--2--3---3---3--3--|

1,2,3______________________________________ 4____________________________________
|------------------------------------------|-------------------------------------|
|-----------------------------------------*|-------------------------------------|
|-----------------------------------------*|-------------------------------------|
|--3---0---0--0--0--3--0--0--0---0---0--0--|--3---0---0--0--0--3--0--0--0---12\--|

CODA 1                                          GUITAR SOLO
|----------------------------------------------|----------------------------------------------|
|----------------------------------------------|----------------------------------------------|
|----------------------------------------------|----------------------------------------------|
|--3---3--3--3--3--3--3---3--3--3--3--3--0--0--|--0--2--2--2--2--0--0--0--0--2--3---3---3--3--|

|------------------------------------------|----------------------------------------------|
|------------------------------------------|----------------------------------------------|
|------------------------------------------|----------------------------------------------|
|--3---0---0--0--0--3--0--0--0---0---0--0--|--0--2--2--2--2--0--0--0--0--2--3---3---3--3--|

|--------------------------------------------|----------------------------------------------|
|--------------------------------------------|----------------------------------------------|
|--------------------------------------------|----------------------------------------------|
|--3---0---0--0--0--3--0--0--0---0--0--3--0--|--0--2--2--2--2--0--0--0--0--2--3---3---3--3--|

                                                                     yeah
|--------------------------------------------|----------------------------------------------|
|--------------------------------------------|----------------------------------------------|
|--------------------------------------------|----------------------------------------------|
|--3---0---0--0--0--3--0--0--0---0--0--3--0--|--0--2--2--2--2--0--0--0--0--2--3---3---3--3--|

                                                CODA 2
                                                                             yeah
|----------9--9--9--9--9--9--9--9--9--9--9--9--|-----------------------------------------------|
|----------9--9--9--9--9--9--9--9--9--9--9--9--|-----------------------------------------------|
|----------7--7--7--7--7--7--7--7--7--7--7--7--|-----------------------------------------------|
|--3---0---0--0--0--0--0--0--0--0--0--0--0--0--|--3----3--3--3--3--3--3---3--3--3--3--3--0--0--|

               Am  I         wrong?
|----------------------------------|--------------------------------------|
|----------------------------------|--------------------------------------|
|--5---5---5---5---5---5--5--5-----|--------------------------------------|
|-------------------------------0--|--4---4---4---4--4---4--4---4---4--0--|

   have    I      run...                          to  get    home?
|------------------------------------------|------------------------------------------|
|------------------------------------------|------------------------------------------|
|------------------------------------------|------------------------------------------|
|--3---3---3---3--3--3--3--3---3--3--3--0--|--0---0---0---0--0--0--0--0---0--0--0--0--|

  if    I     would            could        you?
|----------|-----------------------------|-------|
|----------|-----------------------------|-------|
|-5-----5--|--5----------------5---------|--5----|
|----------|-----------------------------|-------|

jr_tablatur@yahoo.com.br

Suggest correction
Give kudos to tab author, rate the tab!
1 2 3 4 5
comments
print report bad tab
1 comment total.
0 reply
jk41 732 wrote on March 12 2011, 05:13 am

few things in there i disagree with but pretty good, song
is far from advanced though

guest
You may want to rate the tab now too:
select rating
Wanna post a correction for this tab? Suggest correction