Oops, an error
Loading. Please wait.

Your Decision Bass Tab

version 1
version 1

Whole song

Interactive

7,286 views 3 this week
no commentswrite comment
1 2 3 4 5
accurate
x 3
add to favorites
launch autoscroll
font size
0
reset
guitar tuner
Autoscroll
slow
fast
+/-
esc
set tempo
stop
Help us to improve Ultimate-Guitar.com Take our survey!
×
Author
tuning:  Eb Ab Db Gb

intro/verse 1                                   ^ full bend
|-----------------------|                       / slide to
|------------0----------|                       p pull off
|--------------------3--|
|--0----3p0-------------| x12

verse 2
|---------------------------------|
|--------------0-------0----------|
|-------------------------3-3-3-3-|
|--0--0----3----------------------| x5

|---------------------2------------------|
|--------9----5----0-------0--0----------|
|-----7--------------------------3-3-3-3-|
|--0-------------------------------------| 

|---------------------------------|
|--------------0-------0----------|
|-------------------------3-3-3-3-|
|--0--0----3----------------------|

|---------------------2------------------|
|--------9----5----0-------0--0----------|
|-----7--------------------------3-3-3-3-|
|--0-------------------------------------|

chorus 
|-------------------------------------------|
|--0----0--3----2--0------------------------|
|---------------------3----3-3-5-------2-3--|
|---------------------------------3-3-------|

|---------------------------------------------|
|--0-----0------------------------------------|
|-----------------------3----3-2-0-------2-3--|
|-----------1----1-1----------------3-3-------|

|---------------0--------------------------|
|--0----0--3-------------------------------|
|--------------------3----3-3-5-------2-3--|
|---------------------------------3-3------|

|--------------------------------------|
|--0-----0-----------------------------|
|-----------------------3----3-2-0-----|
|-----------1----1-1----------------3--|

post chorus
|------------------------------------|
|------------------------------------|
|---------------------------7---7-5--|
|--3--------3----3/5----5^-----------| 

|-----------------------------------------------|
|-----------------------------------------------|
|---------------------------7---7-5--5-3--3/15--|
|--3--------3----3/5----5^----------------------| 

guitar solo
|------------------------------------|
|-----------------0-------0----------|
|----------------------------3-3-3-3-|
|--0--0----0--3----------------------|

|-----------------------------------|
|--------------0-----0-0------------|
|------------------------0-3-3-3-3--|
|--0--0----3------------------------|

|-----------------------------------|
|--------------0-------0------------|
|------------------------0-3-3-3-3--|
|--0--0----3------------------------|

|------------------------------------|
|-----------------0-------0----------|
|----------------------------3-3-3-3-|
|--0--0----0--3----------------------|

verse 3
|-----------------------------------|
|--------------0--------------------|
|--------------------------3-3-3-3--|
|--0--0----3------------------------|

|-----------------------------------|
|--------------0--------------------|
|------------------------3-3-3-3-3--|
|--0--0----3------------------------|

|----------------------------------|
|--------------0-------0-----------|
|-------------------------3-3-3-3--|
|--0--0----3-----------------------|

|-----------------------------------|
|--------------0--------------------|
|--------------------------3-3-3-3--|
|--0--0----3------------------------|

|----------------------------------|
|--------------0-------0-----------|
|-------------------------3-3-3-3--|
|--0--0----3-----------------------|

|---------------------2------------------|
|--------9----5----0-------0--0----------|
|-----7--------------------------3-3-3-3-|
|--0-------------------------------------| 

|----------------------------------|
|--------------0-------0-----------|
|-------------------------3-3-3-3--|
|--0--0----3-----------------------|

|---------------------2------------------|
|--------9----5----0-------0--0----------|
|-----7--------------------------3-3-3-3-|
|--0-------------------------------------|

 
chorus 
|-------------------------------------------|
|--0----0--3----2--0------------------------|
|---------------------3----3-3-5-------2-3--|
|---------------------------------3-3-------|

|---------------------------------------------|
|--0-----0------------------------------------|
|-----------------------3----3-2-0-------2-3--|
|-----------1----1-1----------------3-3-------|

|---------------0--------------------------|
|--0----0--3-------------------------------|
|--------------------3----3-3-5-------2-3--|
|---------------------------------3-3------|

|---------------------------------------------|
|--0-----0------------------------------------|
|-----------------------3----3-2-0------------|
|-----------1----1-1----------------3----3-3--|

|----------------------------------|
|--------------0-------0-----------|
|-------------------------3-3-3-3--|
|--0--0----3-----------------------|

|---------------------2------------------|
|--------9----5----0-------0--0----------|
|-----7--------------------------3-3-3-3-|
|--0-------------------------------------| 

|----------------------------------|
|--------------0-------0-----------|
|-------------------------3-3-3-3--|
|--0--0----3-----------------------|

|---------------------2------------------|
|--------9----5----0-------0--0----------|
|-----7--------------------------3-3-3-3-|
|--0-------------------------------------| 

post chorus/outro
|------------------------------------|
|------------------------------------|
|---------------------------7---7-5--|
|--3--------3----3/5----5^-----------| 

|-----------------------------------------|
|-----------------------------------------|
|---------------------------7---7-5--5-3--|
|--3--------3----3/5----5^----------------| 


|-------|
|-------|
|--3----|
|-------| x3

|--------|
|--------|
|--------|
|--/7----|
Suggest correction
Give kudos to tab author, rate the tab!
1 2 3 4 5
comments
print report bad tab
guest
You may want to rate the tab now too:
select rating
Wanna post a correction for this tab? Suggest correction