Oops, an error
Loading. Please wait.
We have Chord Pro version of No Roots.
It's the closest thing you can get to the original song and it has interactive parts. Check out the tab »
×

No Roots bass

version 1
version 1

Whole song

  • From the recorded version (https://www.youtube.com/watch?v=PUdyuKaGQd4).

Interactive

16,564 views 570 this week
no commentswrite comment
1 2 3 4 5
x 13
add to favorites
×
Save as Personal and add changes to this tab that will be seen only by you. Learn more ›
×
You can save this tab as Personal to edit and correct it or add notes. All changes will be seen only by you. Learn more »
launch autoscroll
font size
0
reset
guitar tuner
edit
Autoscroll
slow
fast
+/-
esc
set tempo
stop
Author
Difficulty
No Roots                                          
Alice Merton

Bass Tab

Verse = Intro = Chorus = Outro
Little differnces in bar 6 of chorus/verse

Enjoy!


[Intro]
    Q    E  E  E.  E.  E     E  E.  E.  E.  E.  E     Q    E  E  E.  E.  E   
G|------------------------|------------------------|------------------------|
D|------------------------|------------------------|------------------------|
A|--2----------0-------0--|-----2-------0-------0--|--2----------0-------0--|
E|----------2------2------|---------2-------2------|----------2------2------|
    E  E.  E.  E.  E.  E     Q    E  E  E.  E.  E     Q    E  E  E.  E.  E   
G|------------------------|------------------------|------------------------|
D|------------------------|------------------------|------------------------|
A|-----2-------0----------|----------2-------------|------------------------|
E|---------2-------2---1--|--0----------0---0---2--|--3-------3--5---5---2--|

[Verse 1]
    Q    E  E  E.  E.  E     E  E.  E.  E.  E.  E     Q    E  E  E.  E.  E   
G|------------------------|------------------------|------------------------|
D|------------------------|------------------------|------------------------|
A|--2----------0-------0--|-----2-------0-------0--|--2----------0-------0--|
E|----------2------2------|---------2-------2------|----------2------2------| 
    E  E.  E.  E.  E.  E     Q    E  E  E.  E.  E     Q    E  E  E.  E.  E   
G|------------------------|------------------------|------------------------|
D|------------------------|------------------------|------------------------|
A|-----2-------0----------|----------2-------------|------------------------|
E|---------2-------2---1--|--0----------0---0---2--|--3-------3--5---5---2--|
    Q    E  E  E.  E.  E     E  E.  E.  E.  E.  E   
G|------------------------|------------------------|
D|------------------------|------------------------|
A|--2----------0-------0--|-----2-------0-------0--|
E|----------2------2------|---------2-------2------|

[Verse 2]
    Q    E  E  E.  E.  E     E  E.  E.  E.  E.  E     Q    E  E  E.  E.  E   
G|------------------------|------------------------|------------------------|
D|------------------------|------------------------|------------------------|
A|--2----------0-------0--|-----2-------0-------0--|--2----------0-------0--|
E|----------2------2------|---------2-------2------|----------2------2------| 
    E  E.  E.  E.  E.  E     Q    E  E  E.  E.  E     E.  E.  E  E.  E.  E   
G|------------------------|------------------------|------------------------|
D|------------------------|------------------------|------------------------|
A|-----2-------0----------|----------2-------------|----------5-------------|
E|---------2-------2---1--|--0----------0---0---2--|--3---3------5---5---2--|
    Q    E  E  E.  E.  E     E  E.  E.  E.  E.  E   
G|------------------------|------------------------|
D|------------------------|------------------------|
A|--2----------0-------0--|-----2-------0----------|
E|----------2------2------|---------2-------2---1--|

[Bridge]
    W                   W                   H        H           H        H         
G|-------------------|-------------------|--------------------|--------------------|
D|-------------------|-------------------|--------------------|--------------------|
A|-------------------|-------------------|--------------------|--------------------|
E|--0----------------|--L----------------|--3--------5--------|--L-----------------|

[Chorus]
    Q    E  E  E.  E.  E     E  E.  E.  E.  E.  E     Q    E  E  E.  E.  E   
G|------------------------|------------------------|------------------------|
D|------------------------|------------------------|------------------------|
A|--2----------0-------0--|-----2-------0-------0--|--2----------0-------0--|
E|----------2------2------|---------2-------2------|----------2------2------| 
    E  E.  E.  E.  E.  E     Q    E  E  E.  E.  E     Q    E  E  E.  E.  E   
G|------------------------|------------------------|------------------------|
D|------------------------|------------------------|------------------------|
A|-----2-------0----------|----------2-------------|------------------------|
E|---------2-------2---1--|--0----------0---0---2--|--3-------3--5---5---2--|
    Q    E  E  E.  E.  E     E  E.  E.  E.  E.  E   
G|------------------------|------------------------|
D|------------------------|------------------------|
A|--2----------0-------0--|-----2-------0-------0--|
E|----------2------2------|---------2-------2------|

(repeat)
    Q    E  E  E.  E.  E     E  E.  E.  E.  E.  E     Q    E  E  E.  E.  E   
G|------------------------|------------------------|------------------------|
D|------------------------|------------------------|------------------------|
A|--2----------0-------0--|-----2-------0-------0--|--2----------0-------0--|
E|----------2------2------|---------2-------2------|----------2------2------| 
    E  E.  E.  E.  E.  E     Q    E  E  E.  E.  E     Q    E  E  E.  E.  E   
G|------------------------|------------------------|------------------------|
D|------------------------|------------------------|------------------------|
A|-----2-------0----------|----------2-------------|------------------------|
E|---------2-------2---1--|--0----------0---0---2--|--3-------3--5---5---2--|
    Q    E  E  E.  E.  E     E  E.  E.  E.  E.  E   
G|------------------------|------------------------|
D|------------------------|------------------------|
A|--2----------0-------0--|-----2-------0-------0--|
E|----------2------2------|---------2-------2------|

[Verse 3]
    Q    E  E  E.  E.  E     E  E.  E.  E.  E.  E     Q    E  E  E.  E.  E   
G|------------------------|------------------------|------------------------|
D|------------------------|------------------------|------------------------|
A|--2----------0-------0--|-----2-------0-------0--|--2----------0-------0--|
E|----------2------2------|---------2-------2------|----------2------2------| 
    E  E.  E.  E.  E.  E     Q    E  E  E.  E.  E     Q    E  E  E.  E.  E   
G|------------------------|------------------------|------------------------|
D|------------------------|------------------------|------------------------|
A|-----2-------0----------|----------2-------------|------------------------|
E|---------2-------2---1--|--0----------0---0---2--|--3-------3--5---5---2--|
    Q    E  E  E.  E.  E     E  E.  E.  E.  E.  E   
G|------------------------|------------------------|
D|------------------------|------------------------|
A|--2----------0-------0--|-----2-------0-------0--|
E|----------2------2------|---------2-------2------|

[Verse 4]
    Q    E  E  E.  E.  E     E  E.  E.  E.  E.  E     Q    E  E  E.  E.  E   
G|------------------------|------------------------|------------------------|
D|------------------------|------------------------|------------------------|
A|--2----------0-------0--|-----2-------0-------0--|--2----------0-------0--|
E|----------2------2------|---------2-------2------|----------2------2------| 
    E  E.  E.  E.  E.  E     Q    E  E  E.  E.  E     E.  E.  E  E.  E.  E   
G|------------------------|------------------------|------------------------|
D|------------------------|------------------------|------------------------|
A|-----2-------0----------|----------2-------------|----------5-------------|
E|---------2-------2---1--|--0----------0---0---2--|--3---3------5---5---2--|
    Q    E  E  E.  E.  E     E  E.  E.  E.  E.  E   
G|------------------------|------------------------|
D|------------------------|------------------------|
A|--2----------0-------0--|-----2-------0----------|
E|----------2------2------|---------2-------2---1--|

[Bridge]
    W                   W                   H        H           H        H         
G|-------------------|-------------------|--------------------|--------------------|
D|-------------------|-------------------|--------------------|--------------------|
A|-------------------|-------------------|--------------------|--------------------|
E|--0----------------|--L----------------|--3--------5--------|--L-----------------|

[Chorus]
    Q    E  E  E.  E.  E     E  E.  E.  E.  E.  E     Q    E  E  E.  E.  E   
G|------------------------|------------------------|------------------------|
D|------------------------|------------------------|------------------------|
A|--2----------0-------0--|-----2-------0-------0--|--2----------0-------0--|
E|----------2------2------|---------2-------2------|----------2------2------| 
    E  E.  E.  E.  E.  E     Q    E  E  E.  E.  E     Q    E  E  E.  E.  E   
G|------------------------|------------------------|------------------------|
D|------------------------|------------------------|------------------------|
A|-----2-------0----------|----------2-------------|------------------------|
E|---------2-------2---1--|--0----------0---0---2--|--3-------3--5---5---2--|
    Q    E  E  E.  E.  E     E  E.  E.  E.  E.  E   
G|------------------------|------------------------|
D|------------------------|------------------------|
A|--2----------0-------0--|-----2-------0-------0--|
E|----------2------2------|---------2-------2------|

(repeat)
    Q    E  E  E.  E.  E     E  E.  E.  E.  E.  E     Q    E  E  E.  E.  E   
G|------------------------|------------------------|------------------------|
D|------------------------|------------------------|------------------------|
A|--2----------0-------0--|-----2-------0-------0--|--2----------0-------0--|
E|----------2------2------|---------2-------2------|----------2------2------| 
    E  E.  E.  E.  E.  E     Q    E  E  E.  E.  E     Q    E  E  E.  E.  E   
G|------------------------|------------------------|------------------------|
D|------------------------|------------------------|------------------------|
A|-----2-------0----------|----------2-------------|------------------------|
E|---------2-------2---1--|--0----------0---0---2--|--3-------3--5---5---2--|
    Q    E  E  E.  E.  E     E  E.  E.  E.  E.  E   
G|------------------------|------------------------|
D|------------------------|------------------------|
A|--2----------0-------0--|-----2-------0-------0--|
E|----------2------2------|---------2-------2------|

[C Part]

G|-------------------|-------------------|-------------------|-------------------|
D|-------------------|-------------------|-------------------|-------------------|
A|-------------------|-------------------|-------------------|-------------------|
E|-------------------|-------------------|-------------------|-------------------|

G|-------------------|-------------------|-------------------|-------------------|
D|-------------------|-------------------|-------------------|-------------------|
A|-------------------|-------------------|-------------------|-------------------|
E|-------------------|-------------------|-------------------|-------------------|

G|-------------------|
D|-------------------|
A|-------------------|
E|-------------------|

[Chorus]
    Q    E  E  E.  E.  E     E  E.  E.  E.  E.  E     Q    E  E  E.  E.  E   
G|------------------------|------------------------|------------------------|
D|------------------------|------------------------|------------------------|
A|--2----------0-------0--|-----2-------0-------0--|--2----------0-------0--|
E|----------2------2------|---------2-------2------|----------2------2------| 
    E  E.  E.  E.  E.  E     Q    E  E  E.  E.  E     E.  E.  E  E.  E.  E   
G|------------------------|------------------------|------------------------|
D|------------------------|------------------------|------------------------|
A|-----2-------0----------|----------2-------------|------------------------|
E|---------2-------2---1--|--0----------0---0---2--|--3---3---3--5---5---2--|
    Q    E  E  E.  E.  E     E  E.  E.  E.  E.  E   
G|------------------------|------------------------|
D|------------------------|------------------------|
A|--2----------0-------0--|-----2-------0-------0--|
E|----------2------2------|---------2-------2------|

(repeat)
    Q    E  E  E.  E.  E     E  E.  E.  E.  E.  E     Q    E  E  E.  E.  E   
G|------------------------|------------------------|------------------------|
D|------------------------|------------------------|------------------------|
A|--2----------0-------0--|-----2-------0-------0--|--2----------0-------0--|
E|----------2------2------|---------2-------2------|----------2------2------| 
    E  E.  E.  E.  E.  E     Q    E  E  E.  E.  E     E.  E.  E  E.  E.  E   
G|------------------------|------------------------|------------------------|
D|------------------------|------------------------|------------------------|
A|-----2-------0----------|----------2-------------|------------------------|
E|---------2-------2---1--|--0----------0---0---2--|--3---3---3--5---5---2--|
    Q    E  E  E.  E.  E     E  E.  E.  E.  E.  E   
G|------------------------|------------------------|
D|------------------------|------------------------|
A|--2----------0-------0--|-----2-------0-------0--|
E|----------2------2------|---------2-------2------|

[Outro]
    Q    E  E  E.  E.  E     E  E.  E.  E.  E.  E     Q    E  E  E.  E.  E   
G|------------------------|------------------------|------------------------|
D|------------------------|------------------------|------------------------|
A|--2----------0-------0--|-----2-------0-------0--|--2----------0-------0--|
E|----------2------2------|---------2-------2------|----------2------2------| 
    E  E.  E.  E.  E.  E     Q    E  E  E.  E.  E     E.  E.  E  E.  E.  E   
G|------------------------|------------------------|------------------------|
D|------------------------|------------------------|------------------------|                            
A|-----2-------0----------|----------2-------------|------------------------|
E|---------2-------2---1--|--0----------0---0---2--|--3---3---3--5---5---2--|
    Q    E  E  E.  E.  E     E  E.  E.  E.  E.  E                                
G|------------------------|------------------------|
D|------------------------|------------------------|
A|--2----------0-------0--|-----2-------0-------0--|
E|----------2------2------|---------2-------2------|


Duration Legend
---------------
W - whole
H - half
Q - quarter
E - 8th
S - 16th
. - note dotted

Tablature Legend
----------------
L - tied note


            
            
Suggest correction
Creating personal tab
Creating personal tab
You can edit any tab online and save it as your Personal.

You can edit, replace or remove any tab part or add personal notes – all changes will be seen only by you.

Personal tabs can be accessed anytime from any device, even offline.
Learn more »
comments
print report bad tab
guest
You may want to rate the tab now too:
select rating
Wanna post a correction for this tab? Suggest correction