Oops, an error
Loading. Please wait.

Fiery Heart Fiery Mind Tab

133 views 18 this week
no commentswrite comment
1 2 3 4 5
2 more votes to show rating
add to favorites
launch autoscroll
font size
0
reset
how to read this tab
guitar tuner
Autoscroll
slow
fast
+/-
esc
set tempo
stop
Help us to improve Ultimate-Guitar.com Take our survey!
×
Author
Difficulty
novice
Tabbed by: Maya Meck

Refernce to a live performance I tabbed watching: https://www.youtube.com/watch?v=2i7Y_8NUroU
Reference to the official version: https://www.youtube.com/watch?v=KuAXv5qaSbQ

Chords used:

     D     Dsus2    Em     Emadd9   Em7     D5
e|---2---|---0---|---0---|---2---|---3---|---5---|
B|---3---|---3---|---0---|---0---|---0---|---3---|
G|---2---|---2---|---0---|---0---|---0---|---2---|
D|---0---|---0---|---2---|---2---|---2---|---0---|
A|---x---|---x---|---x---|---x---|---x---|---x---|
E|---x---|---x---|---x---|---x---|---x---|---x---|
 
[Intro]
    D               Dsus2           D                   Dsus2
e|--2-------2-----|-0-------0-----|-0h2---------2-----|-0-------0------|
B|------3-------3-|-----3-------3-|-------3---------3-|-----3-------3--|
G|----2-------2---|---2-------2---|-----2---------2---|---2-------2----|
D|--0-----0-------|-0-----0-------|-0-------0---------|-0-----0--------|
A|----------------|---------------|-------------------|----------------|
E|----------------|---------------|-------------------|----------------|

   Em               Emadd9          Em7             Emadd9
e|--0-------0-----|-2-------2-----|-3-------3-----|-2-------2----------|
B|------0-------0-|-----0-------0-|-----0-------0-|-----0-------0------|
G|----0-------0---|---0-------0---|---0-------0---|---0-------0--------|
D|--2-----0-------|-2-----0-------|-2-----0-------|-2-----0------------|
A|----------------|---------------|---------------|--------------------|
E|----------------|---------------|---------------|--------------------|

D                   Dsus2           D                   Dsus2
e|--2-------2-----|-0-------0-----|-0h2---------2-----|-0-------0------|
B|------3-------3-|-----3-------3-|-------3---------3-|-----3-------3--|
G|----2-------2---|---2-------2---|-----2---------2---|---2-------2----|
D|--0-----0-------|-0-----0-------|-0-------0---------|-0-----0--------|
A|----------------|---------------|-------------------|----------------|
E|----------------|---------------|-------------------|----------------|

[Verse]
 D                  Dsus2           D               Dsus2
e|--2-------2-----|-0-------0-----|-2-------2-----|-0-------0----------|
B|------3-------3-|-----3-------3-|-----3-------3-|-----3-------3------|
G|----2-------2---|---2-------2---|---2-------2---|---2-------2--------|
D|--0-----0-------|-0-----0-------|-0-----0-------|-0-----0------------|
A|----------------|---------------|---------------|--------------------|
E|----------------|---------------|---------------|--------------------|

   Em               Emadd9          Em7             Emadd9
e|--0-------0-----|-2-------2-----|-3-------3-----|-2-------2----------|
B|------0-------0-|-----0-------0-|-----0-------0-|-----0-------0------|
G|----0-------0---|---0-------0---|---0-------0---|---0-------0--------|
D|--2-----0-------|-2-----0-------|-2-----0-------|-2-----0------------|
A|----------------|---------------|---------------|--------------------|
E|----------------|---------------|---------------|--------------------|

    D               Dsus2           D                   Dsus2
e|--2-------2-----|-0-------0-----|-0h2---------2-----|-0-------0------|
B|------3-------3-|-----3-------3-|-------3---------3-|-----3-------3--|
G|----2-------2---|---2-------2---|-----2---------2---|---2-------2----|
D|--0-----0-------|-0-----0-------|-0-------0---------|-0-----0--------|
A|----------------|---------------|-------------------|----------------|
E|----------------|---------------|-------------------|----------------|

[Chorus] x2
    D5              D               Dsus2           D
e|--5-------5-----|-2-------2-----|-0-------0-----|-2-------2----------|
B|------3-------3-|-----3-------3-|-----3-------3-|-----3-------3------|
G|----2-------2---|---2-------2---|---2-------2---|---2-------2--------|
D|--0-----0-------|-0-----0-------|-0-----0-------|-0-----0------------|
A|----------------|---------------|---------------|--------------------|
E|----------------|---------------|---------------|--------------------|

Em               Emadd9          Em7             Emadd9
e|--0-------0-----|-2-------2-----|-3-------3-----|-2-------2----------|
B|------0-------0-|-----0-------0-|-----0-------0-|-----0-------0------|
G|----0-------0---|---0-------0---|---0-------0---|---0-------0--------|
D|--2-----0-------|-2-----0-------|-2-----0-------|-2-----0------------|
A|----------------|---------------|---------------|--------------------|
E|----------------|---------------|---------------|--------------------|

    D               Dsus2           D                   Dsus2
e|--2-------2-----|-0-------0-----|-0h2---------2-----|-0-------0------|
B|------3-------3-|-----3-------3-|-------3---------3-|-----3-------3--|
G|----2-------2---|---2-------2---|-----2---------2---|---2-------2----|
D|--0-----0-------|-0-----0-------|-0-------0---------|-0-----0--------|
A|----------------|---------------|-------------------|----------------|
E|----------------|---------------|-------------------|----------------|

[Verse] x2
 D                  Dsus2           D               Dsus2
e|--2-------2-----|-0-------0-----|-2-------2-----|-0-------0----------|
B|------3-------3-|-----3-------3-|-----3-------3-|-----3-------3------|
G|----2-------2---|---2-------2---|---2-------2---|---2-------2--------|
D|--0-----0-------|-0-----0-------|-0-----0-------|-0-----0------------|
A|----------------|---------------|---------------|--------------------|
E|----------------|---------------|---------------|--------------------|

   Em               Emadd9          Em7             Emadd9
e|--0-------0-----|-2-------2-----|-3-------3-----|-2-------2----------|
B|------0-------0-|-----0-------0-|-----0-------0-|-----0-------0------|
G|----0-------0---|---0-------0---|---0-------0---|---0-------0--------|
D|--2-----0-------|-2-----0-------|-2-----0-------|-2-----0------------|
A|----------------|---------------|---------------|--------------------|
E|----------------|---------------|---------------|--------------------|

    D               Dsus2           D                   Dsus2
e|--2-------2-----|-0-------0-----|-0h2---------2-----|-0-------0------|
B|------3-------3-|-----3-------3-|-------3---------3-|-----3-------3--|
G|----2-------2---|---2-------2---|-----2---------2---|---2-------2----|
D|--0-----0-------|-0-----0-------|-0-------0---------|-0-----0--------|
A|----------------|---------------|-------------------|----------------|
E|----------------|---------------|-------------------|----------------|

[Chorus] x2
    D5              D               Dsus2           D
e|--5-------5-----|-2-------2-----|-0-------0-----|-2-------2----------|
B|------3-------3-|-----3-------3-|-----3-------3-|-----3-------3------|
G|----2-------2---|---2-------2---|---2-------2---|---2-------2--------|
D|--0-----0-------|-0-----0-------|-0-----0-------|-0-----0------------|
A|----------------|---------------|---------------|--------------------|
E|----------------|---------------|---------------|--------------------|

Em               Emadd9          Em7             Emadd9
e|--0-------0-----|-2-------2-----|-3-------3-----|-2-------2----------|
B|------0-------0-|-----0-------0-|-----0-------0-|-----0-------0------|
G|----0-------0---|---0-------0---|---0-------0---|---0-------0--------|
D|--2-----0-------|-2-----0-------|-2-----0-------|-2-----0------------|
A|----------------|---------------|---------------|--------------------|
E|----------------|---------------|---------------|--------------------|

    D               Dsus2           D                   Dsus2
e|--2-------2-----|-0-------0-----|-0h2---------2-----|-0-------0------|
B|------3-------3-|-----3-------3-|-------3---------3-|-----3-------3--|
G|----2-------2---|---2-------2---|-----2---------2---|---2-------2----|
D|--0-----0-------|-0-----0-------|-0-------0---------|-0-----0--------|
A|----------------|---------------|-------------------|----------------|
E|----------------|---------------|-------------------|----------------|

[Outro]
D                  Dsus2           D               Dsus2
e|--2-------2-----|-0-------0-----|-2-------2-----|-0-------0----------|
B|------3-------3-|-----3-------3-|-----3-------3-|-----3-------3------|
G|----2-------2---|---2-------2---|---2-------2---|---2-------2--------|
D|--0-----0-------|-0-----0-------|-0-----0-------|-0-----0------------|
A|----------------|---------------|---------------|--------------------|
E|----------------|---------------|---------------|--------------------|

   Em               Emadd9          Em7             Emadd9
e|--0-------0-----|-2-------2-----|-3-------3-----|-2-------2----------|
B|------0-------0-|-----0-------0-|-----0-------0-|-----0-------0------|
G|----0-------0---|---0-------0---|---0-------0---|---0-------0--------|
D|--2-----0-------|-2-----0-------|-2-----0-------|-2-----0------------|
A|----------------|---------------|---------------|--------------------|
E|----------------|---------------|---------------|--------------------|

    D
e|--2---|
B|--3---|
G|--2---|
D|--0---|
A|------|
E|------|

Intro: 
D Dsus2 D Dsus2
Em Emadd9 Em7 Emadd9
D Dsus2 D Dsus2

[Verse]
D             Dsus2                 D              Dsus2
And I've been running away from the wise man in my head 
             Em      Emadd9 Em7
And he said, go, go, go, 
       Emadd9      D    Dsus2 D Dsus2
Go get lost in the wind 
D             Dsus2        D               Dsus2
And I've been hearing some whispers on the wind 
              Em         Emadd9 Em7 
And they said, run, run, run, 
    Emaad9        D    Dsus2 D Dsus2
Run away for your sins 

[Chorus]
    D5    D     Dsus2 D            Em   Emadd9 Em7
But don't leave that  fiery mind behind 
        Emadd9        D    Dsus2 D Dsus2
Take it along for the ride 
    D5    D     Dsus2 D            Em   Emadd9 Em7 
And don't leave that  fiery mind behind 
        Emadd9        D    Dsus2 D Dsus2
Take it along for the ride 

[Chorus]
D              Dsus2    D                Dsus2
There'll be an airplane flying across my soul 
           Em     Emadd9  Em7
And it will role right on
             Emadd9           D    Dsus2 D Dsus2
I'll have to say fair well so long 
D             Dsus2       D                 Dsus2
There'll be a steam train rolling across my heart 
      Em        Emadd9   Em7     Emadd9     D   Dsus2 D Dsus2
And I will have to depart I will have to depart 

[Verse]
    D5    D     Dsus2 D            Em   Emadd9 Em7
But don't leave that  fiery mind behind 
        Emadd9        D    Dsus2 D Dsus2
Take it along for the ride 
    D5    D     Dsus2 D            Em   Emadd9 Em7 
And don't leave that  fiery mind behind 
        Emadd9        D    Dsus2 D Dsus2
Take it along for the ride 

[Outro]
D             Dsus2                 D              Dsus2
And I've been running away from the wise man in my head 
             Em      Emadd9     Em7
And he said, go, go, go, go, go, 
       Emadd9        D(end on D)
Go get lost in the wind 

************************************

| x  Dead note
| h  Hammer-on

************************************
Suggest correction
Give kudos to tab author, rate the tab!
1 2 3 4 5
comments
print report bad tab
guest
You may want to rate the tab now too:
select rating
Wanna post a correction for this tab? Suggest correction