Oops, an error
Loading. Please wait.

Grey Tab

88 views 3 this week
no commentswrite comment
1 2 3 4 5
3 more votes to show rating
add to favorites
launch autoscroll
font size
0
reset
how to read this tab
guitar tuner
Autoscroll
slow
fast
+/-
esc
set tempo
stop
Help us to improve Ultimate-Guitar.com Take our survey!
×
Author
Difficulty
intermediate
[Chords]
Ab   [006544]
Cm   [035500]
Bbm  [013300]
Fm   [133111]

[Intro]
     Ab                           Cm  
e|----------------------------|----------------------------|
B|-----4-4---4-4---4-4---4-4--|----------------------------|
G|-----5-5---5-5---5-5---5-5--|-----5-5---5-5---5-5---5-5--|
D|---6-----6-----6-----6------|-----5-5---5-5---5-5---5-5--|
A|----------------------------|---3-----3------3-----3-----|
E|----------------------------|----------------------------|

     Bbm                          Fm
e|----------------------------|----------------------------|
B|----------------------------|----------------------------|
G|-----3-3---3-3---3-3---3-3--|----------------------------|
D|-----3-3---3-3---3-3---3-3--|-----3-3---3-3---3-3---3-3--|
A|---1-----1-----1-----1------|-----3-3---3-3---3-3---3-3--|
E|----------------------------|---1-----1-----1-----1------|

[Verse 1] 
     Calm…          the fuck down & unclench your
e|-----------------------------------------------|
B|------4---4------4---4------4---4------4---4---|
G|------5---5------5---5------5---5------5---5---|
D|---6----------6----------6----------6----------|
A|-----------------------------------------------|
E|-----------------------------------------------|

     fist.                       I can’t see you
e|-----------------------------------------------|
B|-----------------------------------------------|
G|------5---5------5---5------5---5------5---5---|
D|------5---5------5---5------5---5------5---5---|
A|---3----------3----------3----------3----------|
E|-----------------------------------------------|

     through the mist.                How did it 
e|-----------------------------------------------|
B|-----------------------------------------------|
G|------3---3------3---3------3---3------3---3---|
D|------3---3------3---3------3---3------3---3---|
A|---1----------1----------1----------1----------|
E|-----------------------------------------------|

     come…      to…    this.
e|-----------------------------------------------|
B|-----------------------------------------------|
G|-----------------------------------------------|
D|------3---3------3---3------3---3------3---3---|
A|------3---3------3---3------3---3------3---3---|
E|---1----------1----------1----------1----------|

[Verse 2]
     Wipe…                 the tears from inside
e|-----------------------------------------------|
B|------4---4------4---4------4---4------4---4---|
G|------5---5------5---5------5---5------5---5---|
D|---6----------6----------6----------6----------|
A|-----------------------------------------------|
E|-----------------------------------------------|

     your head.                       Your eyes
e|-----------------------------------------------|
B|-----------------------------------------------|
G|------5---5------5---5------5---5------5---5---|
D|------5---5------5---5------5---5------5---5---|
A|---3----------3----------3----------3----------|
E|-----------------------------------------------|

     are looking dead.          Was it something
e|-----------------------------------------------|
B|-----------------------------------------------|
G|------3---3------3---3------3---3------3---3---|
D|------3---3------3---3------3---3------3---3---|
A|---1----------1----------1----------1----------|
E|-----------------------------------------------|

     I said? 
e|-----------------------------------------------|
B|-----------------------------------------------|
G|-----------------------------------------------|
D|------3---3------3---3------3---3------3---3---|
A|------3---3------3---3------3---3------3---3---|
E|---1----------1----------1----------1----------|

[Verse 3]
     Take…     back those words. I’m not as strong
e|-----------------------------------------------|
B|------4---4------4---4------4---4------4---4---|
G|------5---5------5---5------5---5------5---5---|
D|---6----------6----------6----------6----------|
A|-----------------------------------------------|
E|-----------------------------------------------|

     as I look.                 It’s my soul that
e|-----------------------------------------------|
B|-----------------------------------------------|
G|------5---5------5---5------5---5------5---5---|
D|------5---5------5---5------5---5------5---5---|
A|---3----------3----------3----------3----------|
E|-----------------------------------------------|

     you shook.                 And my heart that
e|-----------------------------------------------|
B|-----------------------------------------------|
G|------3---3------3---3------3---3------3---3---|
D|------3---3------3---3------3---3------3---3---|
A|---1----------1----------1----------1----------|
E|-----------------------------------------------|

     you took. 
e|-----------------------------------------------|
B|-----------------------------------------------|
G|-----------------------------------------------|
D|------3---3------3---3------3---3------3---3---|
A|------3---3------3---3------3---3------3---3---|
E|---1----------1----------1----------1----------|

[Verse 4]
     Leave me in my misery. Hopefully I’ll forget
e|-----------------------------------------------|
B|------4---4------4---4------4---4------4---4---|
G|------5---5------5---5------5---5------5---5---|
D|---6----------6----------6----------6----------|
A|-----------------------------------------------|
E|-----------------------------------------------|
 
     you someday.                     I can’t 
e|-----------------------------------------------|
B|-----------------------------------------------|
G|------5---5------5---5------5---5------5---5---|
D|------5---5------5---5------5---5------5---5---|
A|---3----------3----------3----------3----------|
E|-----------------------------------------------|

     stay.                          I have to stop
e|-----------------------------------------------|
B|-----------------------------------------------|
G|------3---3------3---3------3---3------3---3---|
D|------3---3------3---3------3---3------3---3---|
A|---1----------1----------1----------1----------|
E|-----------------------------------------------|

     my soul’s decay. 
e|-----------------------------------------------|
B|-----------------------------------------------|
G|-----------------------------------------------|
D|------3---3------3---3------3---3------3---3---|
A|------3---3------3---3------3---3------3---3---|
E|---1----------1----------1----------1----------|

[Verse 5] 
     You’ve taken all my dignity. It’s clear to me that this ain’t
e|-----------------------------------------------|
B|------4---4------4---4------4---4------4---4---|
G|------5---5------5---5------5---5------5---5---|
D|---6----------6----------6----------6----------|
A|-----------------------------------------------|
E|-----------------------------------------------|

     child’s play.                       I’ll be
e|-----------------------------------------------|
B|-----------------------------------------------|
G|------5---5------5---5------5---5------5---5---|
D|------5---5------5---5------5---5------5---5---|
A|---3----------3----------3----------3----------|
E|-----------------------------------------------|

     on my way.                       Before my
e|-----------------------------------------------|
B|-----------------------------------------------|
G|------3---3------3---3------3---3------3---3---|
D|------3---3------3---3------3---3------3---3---|
A|---1----------1----------1----------1----------|
E|-----------------------------------------------|

     world turns grey. 
e|-----------------------------------------------|
B|-----------------------------------------------|
G|-----------------------------------------------|
D|------3---3------3---3------3---3------3---3---|
A|------3---3------3---3------3---3------3---3---|
E|---1----------1----------1----------1----------|

[Verse 6]
     Hey…            Hey, you.        Yes, you
e|-----------------------------------------------|
B|------4---4------4---4------4---4------4---4---|
G|------5---5------5---5------5---5------5---5---|
D|---6----------6----------6----------6----------|
A|-----------------------------------------------|
E|-----------------------------------------------|

     standing there.                     Is this
e|-----------------------------------------------|
B|-----------------------------------------------|
G|------5---5------5---5------5---5------5---5---|
D|------5---5------5---5------5---5------5---5---|
A|---3----------3----------3----------3----------|
E|-----------------------------------------------|

     fair?                           Or would you
e|-----------------------------------------------|
B|-----------------------------------------------|
G|------3---3------3---3------3---3------3---3---|
D|------3---3------3---3------3---3------3---3---|
A|---1----------1----------1----------1----------|
E|-----------------------------------------------|

     give me care? 
e|-----------------------------------------------|
B|-----------------------------------------------|
G|-----------------------------------------------|
D|------3---3------3---3------3---3------3---3---|
A|------3---3------3---3------3---3------3---3---|
E|---1----------1----------1----------1----------|

[Verse 7]
     Hey…            Hey, you.        Yes, you
e|-----------------------------------------------|
B|------4---4------4---4------4---4------4---4---|
G|------5---5------5---5------5---5------5---5---|
D|---6----------6----------6----------6----------|
A|-----------------------------------------------|
E|-----------------------------------------------|

     with the smile.                  Would you
e|-----------------------------------------------|
B|-----------------------------------------------|
G|------5---5------5---5------5---5------5---5---|
D|------5---5------5---5------5---5------5---5---|
A|---3----------3----------3----------3----------|
E|-----------------------------------------------|

     take…       me…       under your wing for
e|-----------------------------------------------|
B|-----------------------------------------------|
G|------3---3------3---3------3---3------3---3---|
D|------3---3------3---3------3---3------3---3---|
A|---1----------1----------1----------1----------|
E|-----------------------------------------------|

     a while? 
e|-----------------------------------------------|
B|-----------------------------------------------|
G|-----------------------------------------------|
D|------3---3------3---3------3---3------3---3---|
A|------3---3------3---3------3---3------3---3---|
E|---1----------1----------1----------1----------|

[Outro]
     Ab                           Cm
e|----------------------------|----------------------------|
B|-----4-4---4-4---4-4---4-4--|----------------------------|
G|-----5-5---5-5---5-5---5-5--|-----5-5---5-5---5-5---5-5--|
D|---6-----6-----6-----6------|-----5-5---5-5---5-5---5-5--|
A|----------------------------|---3-----3------3-----3-----|
E|----------------------------|----------------------------|

     Bbm                          Fm
e|----------------------------|----------------------------|
B|----------------------------|----------------------------|
G|-----3-3---3-3---3-3---3-3--|----------------------------|  x2
D|-----3-3---3-3---3-3---3-3--|-----3-3---3-3---3-3---3-3--|         
A|---1-----1-----1-----1------|-----3-3---3-3---3-3---3-3--|
E|----------------------------|---1-----1-----1-----1------|
Suggest correction
Give kudos to tab author, rate the tab!
1 2 3 4 5
comments
print report bad tab
guest
You may want to rate the tab now too:
select rating
Wanna post a correction for this tab? Suggest correction