Oops, an error
Loading. Please wait.

Grey Tab

913 views 60 this week
3 commentsread comments
1 2 3 4 5
x 3
add to favorites
launch autoscroll
font size
0
reset
how to read this tab
guitar tuner
Autoscroll
slow
fast
+/-
esc
set tempo
stop
Author
Difficulty
intermediate
Ab   [006544]
Cm   [034500]
Bbm  [012300]
Fm   [133111]

[Intro]
     Ab                           Cm  
e|----------------------------|----------------------------|
B|-----4-4---4-4---4-4---4-4--|-----4-4---4-4---4-4---4-4--|
G|-----5-5---5-5---5-5---5-5--|-----5-5---5-5---5-5---5-5--|
D|---6-----6-----6-----6------|----------------------------|
A|----------------------------|---3-----3------3-----3-----|
E|----------------------------|----------------------------|

     Bbm                          Fm
e|----------------------------|----------------------------|
B|-----2-2---2-2---2-2---2-2--|----------------------------|
G|-----3-3---3-3---3-3---3-3--|----------------------------|
D|----------------------------|-----3-3---3-3---3-3---3-3--|
A|---1-----1-----1-----1------|-----3-3---3-3---3-3---3-3--|
E|----------------------------|---1-----1-----1-----1------|

[Verse 1] 
     Calm…          the fuck down & unclench your
e|-----------------------------------------------|
B|------4---4------4---4------4---4------4---4---|
G|------5---5------5---5------5---5------5---5---|
D|---6----------6----------6----------6----------|
A|-----------------------------------------------|
E|-----------------------------------------------|

     fist.                       I can’t see you
e|-----------------------------------------------|
B|------4---4------4---4------4---4------4---4---|
G|------5---5------5---5------5---5------5---5---|
D|-----------------------------------------------|
A|---3----------3----------3----------3----------|
E|-----------------------------------------------|

     through the mist.                How did it 
e|-----------------------------------------------|
B|------2---2------2---2------2---2------2---2---|
G|------3---3------3---3------3---3------3---3---|
D|-----------------------------------------------|
A|---1----------1----------1----------1----------|
E|-----------------------------------------------|

     come…      to…    this.
e|-----------------------------------------------|
B|-----------------------------------------------|
G|-----------------------------------------------|
D|------3---3------3---3------3---3------3---3---|
A|------3---3------3---3------3---3------3---3---|
E|---1----------1----------1----------1----------|

[Verse 2]
     Wipe…                 the tears from inside
e|-----------------------------------------------|
B|------4---4------4---4------4---4------4---4---|
G|------5---5------5---5------5---5------5---5---|
D|---6----------6----------6----------6----------|
A|-----------------------------------------------|
E|-----------------------------------------------|

     your head.                       Your eyes
e|-----------------------------------------------|
B|------4---4------4---4------4---4------4---4---|
G|------5---5------5---5------5---5------5---5---|
D|-----------------------------------------------|
A|---3----------3----------3----------3----------|
E|-----------------------------------------------|

     are looking dead.          Was it something
e|-----------------------------------------------|
B|------2---2------2---2------2---2------2---2---|
G|------3---3------3---3------3---3------3---3---|
D|-----------------------------------------------|
A|---1----------1----------1----------1----------|
E|-----------------------------------------------|

     I said? 
e|-----------------------------------------------|
B|-----------------------------------------------|
G|-----------------------------------------------|
D|------3---3------3---3------3---3------3---3---|
A|------3---3------3---3------3---3------3---3---|
E|---1----------1----------1----------1----------|

[Verse 3]
     Take…     back those words. I’m not as strong
e|-----------------------------------------------|
B|------4---4------4---4------4---4------4---4---|
G|------5---5------5---5------5---5------5---5---|
D|---6----------6----------6----------6----------|
A|-----------------------------------------------|
E|-----------------------------------------------|

     as I look.                 It’s my soul that
e|-----------------------------------------------|
B|------4---4------4---4------4---4------4---4---|
G|------5---5------5---5------5---5------5---5---|
D|-----------------------------------------------|
A|---3----------3----------3----------3----------|
E|-----------------------------------------------|

     you shook.                 And my heart that
e|-----------------------------------------------|
B|------2---2------2---2------2---2------2---2---|
G|------3---3------3---3------3---3------3---3---|
D|-----------------------------------------------|
A|---1----------1----------1----------1----------|
E|-----------------------------------------------|

     you took. 
e|-----------------------------------------------|
B|-----------------------------------------------|
G|-----------------------------------------------|
D|------3---3------3---3------3---3------3---3---|
A|------3---3------3---3------3---3------3---3---|
E|---1----------1----------1----------1----------|

[Verse 4]
     Leave me in my misery. Hopefully I’ll forget
e|-----------------------------------------------|
B|------4---4------4---4------4---4------4---4---|
G|------5---5------5---5------5---5------5---5---|
D|---6----------6----------6----------6----------|
A|-----------------------------------------------|
E|-----------------------------------------------|
 
     you someday.                     I can’t 
e|-----------------------------------------------|
B|------4---4------4---4------4---4------4---4---|
G|------5---5------5---5------5---5------5---5---|
D|-----------------------------------------------|
A|---3----------3----------3----------3----------|
E|-----------------------------------------------|

     stay.                          I have to stop
e|-----------------------------------------------|
B|------2---2------2---2------2---2------2---2---|
G|------3---3------3---3------3---3------3---3---|
D|-----------------------------------------------|
A|---1----------1----------1----------1----------|
E|-----------------------------------------------|

     my soul’s decay. 
e|-----------------------------------------------|
B|-----------------------------------------------|
G|-----------------------------------------------|
D|------3---3------3---3------3---3------3---3---|
A|------3---3------3---3------3---3------3---3---|
E|---1----------1----------1----------1----------|

[Verse 5] 
     You’ve taken all my dignity. It’s clear to me that this ain’t
e|-----------------------------------------------|
B|------4---4------4---4------4---4------4---4---|
G|------5---5------5---5------5---5------5---5---|
D|---6----------6----------6----------6----------|
A|-----------------------------------------------|
E|-----------------------------------------------|

     child’s play.                       I’ll be
e|-----------------------------------------------|
B|------4---4------4---4------4---4------4---4---|
G|------5---5------5---5------5---5------5---5---|
D|-----------------------------------------------|
A|---3----------3----------3----------3----------|
E|-----------------------------------------------|

     on my way.                       Before my
e|-----------------------------------------------|
B|------2---2------2---2------2---2------2---2---|
G|------3---3------3---3------3---3------3---3---|
D|-----------------------------------------------|
A|---1----------1----------1----------1----------|
E|-----------------------------------------------|

     world turns grey. 
e|-----------------------------------------------|
B|-----------------------------------------------|
G|-----------------------------------------------|
D|------3---3------3---3------3---3------3---3---|
A|------3---3------3---3------3---3------3---3---|
E|---1----------1----------1----------1----------|

[Verse 6]
     Hey…            Hey, you.        Yes, you
e|-----------------------------------------------|
B|------4---4------4---4------4---4------4---4---|
G|------5---5------5---5------5---5------5---5---|
D|---6----------6----------6----------6----------|
A|-----------------------------------------------|
E|-----------------------------------------------|

     standing there.                     Is this
e|-----------------------------------------------|
B|------4---4------4---4------4---4------4---4---|
G|------5---5------5---5------5---5------5---5---|
D|-----------------------------------------------|
A|---3----------3----------3----------3----------|
E|-----------------------------------------------|

     fair?                           Or would you
e|-----------------------------------------------|
B|------2---2------2---2------2---2------2---2---|
G|------3---3------3---3------3---3------3---3---|
D|-----------------------------------------------|
A|---1----------1----------1----------1----------|
E|-----------------------------------------------|

     give me care? 
e|-----------------------------------------------|
B|-----------------------------------------------|
G|-----------------------------------------------|
D|------3---3------3---3------3---3------3---3---|
A|------3---3------3---3------3---3------3---3---|
E|---1----------1----------1----------1----------|

[Verse 7]
     Hey…            Hey, you.        Yes, you
e|-----------------------------------------------|
B|------4---4------4---4------4---4------4---4---|
G|------5---5------5---5------5---5------5---5---|
D|---6----------6----------6----------6----------|
A|-----------------------------------------------|
E|-----------------------------------------------|

     with the smile.                  Would you
e|-----------------------------------------------|
B|------4---4------4---4------4---4------4---4---|
G|------5---5------5---5------5---5------5---5---|
D|-----------------------------------------------|
A|---3----------3----------3----------3----------|
E|-----------------------------------------------|

     take…       me…       under your wing for
e|-----------------------------------------------|
B|------2---2------2---2------2---2------2---2---|
G|------3---3------3---3------3---3------3---3---|
D|-----------------------------------------------|
A|---1----------1----------1----------1----------|
E|-----------------------------------------------|

     a while? 
e|-----------------------------------------------|
B|-----------------------------------------------|
G|-----------------------------------------------|
D|------3---3------3---3------3---3------3---3---|
A|------3---3------3---3------3---3------3---3---|
E|---1----------1----------1----------1----------|

[Outro]
     Ab                           Cm
e|----------------------------|----------------------------|
B|-----4-4---4-4---4-4---4-4--|-----4-4---4-4---4-4---4-4--|
G|-----5-5---5-5---5-5---5-5--|-----5-5---5-5---5-5---5-5--|
D|---6-----6-----6-----6------|----------------------------|
A|----------------------------|---3-----3------3-----3-----|
E|----------------------------|----------------------------|

     Bbm                          Fm
e|----------------------------|----------------------------|
B|-----2-2---2-2---2-2---2-2--|----------------------------|
G|-----3-3---3-3---3-3---3-3--|----------------------------|  x2
D|----------------------------|-----3-3---3-3---3-3---3-3--|         
A|---1-----1-----1-----1------|-----3-3---3-3---3-3---3-3--|
E|----------------------------|---1-----1-----1-----1------|
Suggest correction
Give kudos to tab author, rate the tab!
1 2 3 4 5
comments
print report bad tab
3 comments total.
0 reply
EddLion 84 Dec 09, 2016 12:55 AM

Great tab, but on Cm and Bbm should be played like this:

Bbm Cm
e|----------------------------|----------------------------|
B|-----2-2---2-2---2-2---2-2--|-----4-4---4-4---4-4---4-4--|
G|-----3-3---3-3---3-3---3-3--|-----5-5---5-5---5-5---5-5--|
D|----------------------------|----------------------------|
A|---1-----1-----1-----1------|---3-----3-----3-----3------|
E|----------------------------|----------------------------|

You can hear the B string's high notes ringing if you listen to APL's live performances. Other than that, it's spot on.

guest
You may want to rate the tab now too:
select rating
Wanna post a correction for this tab? Suggest correction